ISO-10303-21;
HEADER;
FILE_DESCRIPTION (( 'STEP AP214' ),
    '1' );
FILE_NAME ('42577.step',
    '2024-04-04T09:32:59',
    ( '' ),
    ( '' ),
    'SwSTEP 2.0',
    'SolidWorks 2022',
    '' );
FILE_SCHEMA (( 'AUTOMOTIVE_DESIGN' ));
ENDSEC;

DATA;
#1 = EDGE_CURVE ( 'NONE', #27, #11, #171, .T. ) ;
#2 = DIRECTION ( 'NONE',  ( 3.491481338843133355E-15, -1.224646799147353207E-16, 1.000000000000000000 ) ) ;
#3 = CARTESIAN_POINT ( 'NONE',  ( 0.000000000000000000, 0.000000000000000000, 0.000000000000000000 ) ) ;
#4 = DIRECTION ( 'NONE',  ( -3.491481338843133355E-15, 1.224646799147353207E-16, -1.000000000000000000 ) ) ;
#5 = ORIENTED_EDGE ( 'NONE', *, *, #217, .F. ) ;
#6 = PRODUCT ( '42577', '42577', '', ( #291 ) ) ;
#7 = DIRECTION ( 'NONE',  ( 3.285674118869270099E-15, -0.3382550599108753997, 0.9410544694355847950 ) ) ;
#8 = CIRCLE ( 'NONE', #228, 2.949999999999998845 ) ;
#9 = DIRECTION ( 'NONE',  ( 0.000000000000000000, 1.000000000000000000, 0.000000000000000000 ) ) ;
#10 = DIRECTION ( 'NONE',  ( -3.491481338843133355E-15, 1.224646799147353207E-16, -1.000000000000000000 ) ) ;
#11 = VERTEX_POINT ( 'NONE', #293 ) ;
#12 = FACE_OUTER_BOUND ( 'NONE', #22, .T. ) ;
#13 = AXIS2_PLACEMENT_3D ( 'NONE', #248, #88, #329 ) ;
#14 = ORIENTED_EDGE ( 'NONE', *, *, #38, .F. ) ;
#15 = CARTESIAN_POINT ( 'NONE',  ( 1.990144363140586139E-13, -6.980486755139912911E-15, 57.00000000000000000 ) ) ;
#16 = EDGE_LOOP ( 'NONE', ( #223, #304, #140, #83 ) ) ;
#17 = PLANE ( 'NONE',  #300 ) ;
#18 = ORIENTED_EDGE ( 'NONE', *, *, #134, .T. ) ;
#19 = DIRECTION ( 'NONE',  ( 3.491481338843133355E-15, -0.000000000000000000, 1.000000000000000000 ) ) ;
#20 = VECTOR ( 'NONE', #221, 1000.000000000000000 ) ;
#21 = ORIENTED_EDGE ( 'NONE', *, *, #212, .T. ) ;
#22 = EDGE_LOOP ( 'NONE', ( #250, #21 ) ) ;
#23 = PRESENTATION_STYLE_ASSIGNMENT (( #153 ) ) ;
#24 = AXIS2_PLACEMENT_3D ( 'NONE', #93, #59, #303 ) ;
#25 = CIRCLE ( 'NONE', #187, 2.999999999999995115 ) ;
#26 = CARTESIAN_POINT ( 'NONE',  ( 5.237222008264699402E-14, 0.000000000000000000, 14.99999999999999822 ) ) ;
#27 = VERTEX_POINT ( 'NONE', #139 ) ;
#28 = CYLINDRICAL_SURFACE ( 'NONE', #138, 2.999999999999995115 ) ;
#29 = CIRCLE ( 'NONE', #132, 2.950000000000000178 ) ;
#30 =( NAMED_UNIT ( * ) PLANE_ANGLE_UNIT ( ) SI_UNIT ( $, .RADIAN. ) );
#31 = CYLINDRICAL_SURFACE ( 'NONE', #236, 2.999999999999995115 ) ;
#32 = DIRECTION ( 'NONE',  ( -2.398081733190338127E-14, -1.000000000000000000, 0.000000000000000000 ) ) ;
#33 = DIRECTION ( 'NONE',  ( -3.491481338843133355E-15, 1.224646799147353207E-16, -1.000000000000000000 ) ) ;
#34 = CARTESIAN_POINT ( 'NONE',  ( 0.000000000000000000, 0.000000000000000000, 0.000000000000000000 ) ) ;
#35 = ADVANCED_FACE ( 'NONE', ( #318 ), #116, .T. ) ;
#36 = CARTESIAN_POINT ( 'NONE',  ( 1.969195475107526708E-13, -6.907007947191070402E-15, 56.39999999999998437 ) ) ;
#37 = CARTESIAN_POINT ( 'NONE',  ( 2.950000000000051248, 0.000000000000000000, 14.99999999999998757 ) ) ;
#38 = EDGE_CURVE ( 'NONE', #183, #322, #308, .T. ) ;
#39 = DIRECTION ( 'NONE',  ( 1.000000000000000000, 0.000000000000000000, -3.528251137579948177E-15 ) ) ;
#40 = AXIS2_PLACEMENT_3D ( 'NONE', #26, #339, #125 ) ;
#41 = COLOUR_RGB ( '',0.8980392156862745390, 0.9176470588235293713, 0.9294117647058823817 ) ;
#42 = ORIENTED_EDGE ( 'NONE', *, *, #43, .T. ) ;
#43 = EDGE_CURVE ( 'NONE', #195, #288, #99, .T. ) ;
#44 = CLOSED_SHELL ( 'NONE', ( #255, #261, #170, #105 ) ) ;
#45 = EDGE_CURVE ( 'NONE', #288, #280, #266, .T. ) ;
#46 = FACE_OUTER_BOUND ( 'NONE', #328, .T. ) ;
#47 = ORIENTED_EDGE ( 'NONE', *, *, #166, .T. ) ;
#48 = ORIENTED_EDGE ( 'NONE', *, *, #134, .F. ) ;
#49 = DIRECTION ( 'NONE',  ( 0.000000000000000000, 0.000000000000000000, 1.000000000000000000 ) ) ;
#50 = VECTOR ( 'NONE', #311, 1000.000000000000114 ) ;
#51 = MANIFOLD_SOLID_BREP ( 'Corps-Déplacer/Copier1[2]', #44 ) ;
#52 = FACE_OUTER_BOUND ( 'NONE', #184, .T. ) ;
#53 = CARTESIAN_POINT ( 'NONE',  ( 0.000000000000000000, 0.000000000000000000, 0.000000000000000000 ) ) ;
#54 = APPLICATION_PROTOCOL_DEFINITION ( 'draft international standard', 'automotive_design', 1998, #234 ) ;
#55 = ORIENTED_EDGE ( 'NONE', *, *, #290, .F. ) ;
#56 = DIRECTION ( 'NONE',  ( 0.000000000000000000, -1.000000000000000000, 0.000000000000000000 ) ) ;
#57 = VECTOR ( 'NONE', #176, 1000.000000000000000 ) ;
#58 = VECTOR ( 'NONE', #7, 1000.000000000000114 ) ;
#59 = DIRECTION ( 'NONE',  ( -3.491481338843133355E-15, 1.224646799147353207E-16, -1.000000000000000000 ) ) ;
#60 = DIRECTION ( 'NONE',  ( 3.491481338843133355E-15, -1.224646799147353207E-16, 1.000000000000000000 ) ) ;
#61 = ORIENTED_EDGE ( 'NONE', *, *, #217, .T. ) ;
#62 = CARTESIAN_POINT ( 'NONE',  ( 5.237222008264699402E-14, -1.836970198721029589E-15, 14.99999999999999822 ) ) ;
#63 = EDGE_LOOP ( 'NONE', ( #48, #201, #129, #312 ) ) ;
#64 = CIRCLE ( 'NONE', #104, 2.949999999999998845 ) ;
#65 = CARTESIAN_POINT ( 'NONE',  ( 2.950000000000000178, 0.000000000000000000, -1.029986994958724340E-14 ) ) ;
#66 = ADVANCED_FACE ( 'NONE', ( #218 ), #28, .T. ) ;
#67 = CARTESIAN_POINT ( 'NONE',  ( -2.950000000000000178, 3.612708057484724144E-16, 1.029986994958724498E-14 ) ) ;
#68 = ORIENTED_EDGE ( 'NONE', *, *, #265, .F. ) ;
#69 = AXIS2_PLACEMENT_3D ( 'NONE', #72, #177, #151 ) ;
#70 =( LENGTH_UNIT ( ) NAMED_UNIT ( * ) SI_UNIT ( .MILLI., .METRE. ) );
#71 = EDGE_CURVE ( 'NONE', #280, #340, #74, .T. ) ;
#72 = CARTESIAN_POINT ( 'NONE',  ( 5.285790004848910978E-14, -1.854005558726007325E-15, 15.13910427085457044 ) ) ;
#73 = AXIS2_PLACEMENT_3D ( 'NONE', #269, #161, #84 ) ;
#74 = CIRCLE ( 'NONE', #341, 2.999999999999992895 ) ;
#75 = ORIENTED_EDGE ( 'NONE', *, *, #331, .F. ) ;
#76 = CARTESIAN_POINT ( 'NONE',  ( 3.673940397442041133E-16, -2.999999999999995115, -3.673940397442066278E-16 ) ) ;
#77 = DIRECTION ( 'NONE',  ( 0.000000000000000000, 1.000000000000000000, 0.000000000000000000 ) ) ;
#78 = CARTESIAN_POINT ( 'NONE',  ( 5.285790004848910978E-14, -1.854005558726007325E-15, 15.13910427085457044 ) ) ;
#79 = STYLED_ITEM ( 'NONE', ( #23 ), #289 ) ;
#80 = VECTOR ( 'NONE', #33, 1000.000000000000000 ) ;
#81 = ORIENTED_EDGE ( 'NONE', *, *, #71, .T. ) ;
#82 = CARTESIAN_POINT ( 'NONE',  ( -2.949999999999945999, 3.612708057484691111E-16, 15.00000000000000888 ) ) ;
#83 = ORIENTED_EDGE ( 'NONE', *, *, #268, .F. ) ;
#84 = DIRECTION ( 'NONE',  ( 0.000000000000000000, -1.000000000000000000, 0.000000000000000000 ) ) ;
#85 = AXIS2_PLACEMENT_3D ( 'NONE', #196, #19, #246 ) ;
#86 = AXIS2_PLACEMENT_3D ( 'NONE', #53, #294, #315 ) ;
#87 = CARTESIAN_POINT ( 'NONE',  ( 5.261506006556805506E-14, -2.950000000000001954, 14.99999999999999822 ) ) ;
#88 = DIRECTION ( 'NONE',  ( -3.491481338843133355E-15, 0.000000000000000000, -1.000000000000000000 ) ) ;
#89 = ADVANCED_FACE ( 'NONE', ( #52 ), #207, .T. ) ;
#90 = CARTESIAN_POINT ( 'NONE',  ( 5.237222008264699402E-14, 0.000000000000000000, 14.99999999999999822 ) ) ;
#91 = VERTEX_POINT ( 'NONE', #82 ) ;
#92 = ADVANCED_FACE ( 'NONE', ( #271 ), #31, .T. ) ;
#93 = CARTESIAN_POINT ( 'NONE',  ( 5.237222008264699402E-14, 2.949999999999998845, 14.99999999999999822 ) ) ;
#94 =( NAMED_UNIT ( * ) SI_UNIT ( $, .STERADIAN. ) SOLID_ANGLE_UNIT ( ) );
#95 = UNCERTAINTY_MEASURE_WITH_UNIT (LENGTH_MEASURE( 1.000000000000000082E-05 ), #70, 'distance_accuracy_value', 'NONE');
#96 = DIRECTION ( 'NONE',  ( 1.000000000000000000, 0.000000000000000000, -3.491481338843132961E-15 ) ) ;
#97 = FILL_AREA_STYLE ('',( #227 ) ) ;
#98 = EDGE_CURVE ( 'NONE', #322, #280, #323, .T. ) ;
#99 = CIRCLE ( 'NONE', #244, 2.950000000000000178 ) ;
#100 = DIRECTION ( 'NONE',  ( 0.000000000000000000, 1.000000000000000000, 0.000000000000000000 ) ) ;
#101 = UNCERTAINTY_MEASURE_WITH_UNIT (LENGTH_MEASURE( 1.000000000000000082E-05 ), #114, 'distance_accuracy_value', 'NONE');
#102 = FACE_OUTER_BOUND ( 'NONE', #256, .T. ) ;
#103 = ORIENTED_EDGE ( 'NONE', *, *, #45, .T. ) ;
#104 = AXIS2_PLACEMENT_3D ( 'NONE', #277, #279, #39 ) ;
#105 = ADVANCED_FACE ( 'NONE', ( #109 ), #188, .F. ) ;
#106 = DIRECTION ( 'NONE',  ( 1.000000000000000000, 0.000000000000000000, 0.000000000000000000 ) ) ;
#107 = DIRECTION ( 'NONE',  ( -3.491481338843133355E-15, 1.224646799147353207E-16, -1.000000000000000000 ) ) ;
#108 = CARTESIAN_POINT ( 'NONE',  ( 5.237222008264699402E-14, -1.836970198721029589E-15, 14.99999999999999822 ) ) ;
#109 = FACE_OUTER_BOUND ( 'NONE', #336, .T. ) ;
#110 = ADVANCED_FACE ( 'NONE', ( #224 ), #117, .T. ) ;
#111 = AXIS2_PLACEMENT_3D ( 'NONE', #192, #60, #275 ) ;
#112 = ORIENTED_EDGE ( 'NONE', *, *, #212, .F. ) ;
#113 = CARTESIAN_POINT ( 'NONE',  ( 1.252561178193650578E-13, -2.999999999999994227, 15.13910427085457044 ) ) ;
#114 =( LENGTH_UNIT ( ) NAMED_UNIT ( * ) SI_UNIT ( .MILLI., .METRE. ) );
#115 = DIRECTION ( 'NONE',  ( -3.491481338843133355E-15, 1.224646799147353207E-16, -1.000000000000000000 ) ) ;
#116 = CONICAL_SURFACE ( 'NONE', #214, 2.999999999999995115, 0.7853981633974399523 ) ;
#117 = PLANE ( 'NONE',  #24 ) ;
#118 = ORIENTED_EDGE ( 'NONE', *, *, #166, .F. ) ;
#119 = DIRECTION ( 'NONE',  ( -4.275831445896958607E-31, -1.000000000000000000, -1.224646799147353207E-16 ) ) ;
#120 = ORIENTED_EDGE ( 'NONE', *, *, #98, .F. ) ;
#121 = DIRECTION ( 'NONE',  ( 1.000000000000000000, 0.000000000000000000, -3.528251137579947388E-15 ) ) ;
#122 = PRESENTATION_LAYER_ASSIGNMENT (  '', '', ( #338 ) ) ;
#123 = ORIENTED_EDGE ( 'NONE', *, *, #1, .T. ) ;
#124 = CYLINDRICAL_SURFACE ( 'NONE', #40, 2.949999999999999289 ) ;
#125 = DIRECTION ( 'NONE',  ( 1.000000000000000000, 0.000000000000000000, -3.528251137579947388E-15 ) ) ;
#126 = AXIS2_PLACEMENT_3D ( 'NONE', #62, #335, #168 ) ;
#127 =( GEOMETRIC_REPRESENTATION_CONTEXT ( 3 ) GLOBAL_UNCERTAINTY_ASSIGNED_CONTEXT ( ( #342 ) ) GLOBAL_UNIT_ASSIGNED_CONTEXT ( ( #343, #242, #208 ) ) REPRESENTATION_CONTEXT ( 'NONE', 'WORKASPACE' ) );
#128 = FILL_AREA_STYLE ('',( #154 ) ) ;
#129 = ORIENTED_EDGE ( 'NONE', *, *, #180, .F. ) ;
#130 = LINE ( 'NONE', #76, #80 ) ;
#131 = CARTESIAN_POINT ( 'NONE',  ( 5.237222008264699402E-14, -1.836970198721029589E-15, 14.99999999999999822 ) ) ;
#132 = AXIS2_PLACEMENT_3D ( 'NONE', #232, #226, #96 ) ;
#133 = SHAPE_DEFINITION_REPRESENTATION ( #231, #229 ) ;
#134 = EDGE_CURVE ( 'NONE', #11, #27, #272, .T. ) ;
#135 = UNCERTAINTY_MEASURE_WITH_UNIT (LENGTH_MEASURE( 1.000000000000000082E-05 ), #162, 'distance_accuracy_value', 'NONE');
#136 = DIRECTION ( 'NONE',  ( 4.275831445896959482E-31, 1.000000000000000000, 1.224646799147353207E-16 ) ) ;
#137 = FILL_AREA_STYLE ('',( #245 ) ) ;
#138 = AXIS2_PLACEMENT_3D ( 'NONE', #3, #107, #156 ) ;
#139 = CARTESIAN_POINT ( 'NONE',  ( 1.979669919124056423E-13, 2.399999999999981259, 57.00000000000000000 ) ) ;
#140 = ORIENTED_EDGE ( 'NONE', *, *, #98, .T. ) ;
#141 = CARTESIAN_POINT ( 'NONE',  ( 1.252561178193650074E-13, -3.000000000000002220, 56.39999999999998437 ) ) ;
#142 = EDGE_CURVE ( 'NONE', #233, #167, #147, .T. ) ;
#143 = PLANE ( 'NONE',  #13 ) ;
#144 = MECHANICAL_DESIGN_GEOMETRIC_PRESENTATION_REPRESENTATION (  '', ( #164 ), #172 ) ;
#145 = EDGE_LOOP ( 'NONE', ( #148, #47, #264, #209 ) ) ;
#146 = LINE ( 'NONE', #165, #57 ) ;
#147 = LINE ( 'NONE', #202, #20 ) ;
#148 = ORIENTED_EDGE ( 'NONE', *, *, #331, .T. ) ;
#149 = LINE ( 'NONE', #258, #58 ) ;
#150 = VECTOR ( 'NONE', #296, 1000.000000000000000 ) ;
#151 = DIRECTION ( 'NONE',  ( 0.000000000000000000, 1.000000000000000000, 0.000000000000000000 ) ) ;
#152 = SURFACE_STYLE_USAGE ( .BOTH. , #285 ) ;
#153 = SURFACE_STYLE_USAGE ( .BOTH. , #309 ) ;
#154 = FILL_AREA_STYLE_COLOUR ( '', #198 ) ;
#155 = EDGE_CURVE ( 'NONE', #11, #183, #146, .T. ) ;
#156 = DIRECTION ( 'NONE',  ( 4.275831445896959482E-31, 1.000000000000000000, 1.224646799147353207E-16 ) ) ;
#157 = DIRECTION ( 'NONE',  ( 0.000000000000000000, -1.000000000000000000, 0.000000000000000000 ) ) ;
#158 = CARTESIAN_POINT ( 'NONE',  ( 5.237222008264699402E-14, -1.836970198721029589E-15, 14.99999999999999822 ) ) ;
#159 = VECTOR ( 'NONE', #325, 1000.000000000000000 ) ;
#160 = CARTESIAN_POINT ( 'NONE',  ( 5.273349088839546397E-14, 2.949999999999998845, 14.99999999999999822 ) ) ;
#161 = DIRECTION ( 'NONE',  ( 3.491481338843133355E-15, -1.224646799147353207E-16, 1.000000000000000000 ) ) ;
#162 =( LENGTH_UNIT ( ) NAMED_UNIT ( * ) SI_UNIT ( .MILLI., .METRE. ) );
#163 = SURFACE_SIDE_STYLE ('',( #189 ) ) ;
#164 = STYLED_ITEM ( 'NONE', ( #299 ), #51 ) ;
#165 = CARTESIAN_POINT ( 'NONE',  ( 1.972869415504968762E-13, -3.000000000000002220, 56.39999999999998437 ) ) ;
#166 = EDGE_CURVE ( 'NONE', #292, #91, #282, .T. ) ;
#167 = VERTEX_POINT ( 'NONE', #37 ) ;
#168 = DIRECTION ( 'NONE',  ( 0.000000000000000000, 1.000000000000000000, 0.000000000000000000 ) ) ;
#169 = ORIENTED_EDGE ( 'NONE', *, *, #1, .F. ) ;
#170 = ADVANCED_FACE ( 'NONE', ( #12 ), #143, .F. ) ;
#171 = CIRCLE ( 'NONE', #73, 2.399999999999987921 ) ;
#172 =( GEOMETRIC_REPRESENTATION_CONTEXT ( 3 ) GLOBAL_UNCERTAINTY_ASSIGNED_CONTEXT ( ( #101 ) ) GLOBAL_UNIT_ASSIGNED_CONTEXT ( ( #114, #30, #267 ) ) REPRESENTATION_CONTEXT ( 'NONE', 'WORKASPACE' ) );
#173 = CYLINDRICAL_SURFACE ( 'NONE', #326, 2.949999999999999289 ) ;
#174 = ORIENTED_EDGE ( 'NONE', *, *, #265, .T. ) ;
#175 = CLOSED_SHELL ( 'NONE', ( #35, #324, #92, #110, #238, #66, #89, #276 ) ) ;
#176 = DIRECTION ( 'NONE',  ( -2.382254525458737980E-15, -0.7071067811865415775, -0.7071067811865535679 ) ) ;
#177 = DIRECTION ( 'NONE',  ( -3.491481338843133355E-15, 1.224646799147353207E-16, -1.000000000000000000 ) ) ;
#178 = VECTOR ( 'NONE', #4, 1000.000000000000000 ) ;
#179 = AXIS2_PLACEMENT_3D ( 'NONE', #108, #2, #157 ) ;
#180 = EDGE_CURVE ( 'NONE', #322, #183, #25, .T. ) ;
#181 = CARTESIAN_POINT ( 'NONE',  ( 1.969195475107526708E-13, 2.999999999999988454, 56.39999999999998437 ) ) ;
#182 = AXIS2_PLACEMENT_3D ( 'NONE', #211, #186, #32 ) ;
#183 = VERTEX_POINT ( 'NONE', #141 ) ;
#184 = EDGE_LOOP ( 'NONE', ( #316, #298, #197, #284 ) ) ;
#185 = FACE_OUTER_BOUND ( 'NONE', #220, .T. ) ;
#186 = DIRECTION ( 'NONE',  ( -3.491481338843133355E-15, 1.224646799147343593E-16, -1.000000000000000000 ) ) ;
#187 = AXIS2_PLACEMENT_3D ( 'NONE', #36, #193, #301 ) ;
#188 = PLANE ( 'NONE',  #85 ) ;
#189 = SURFACE_STYLE_FILL_AREA ( #137 ) ;
#190 = DIRECTION ( 'NONE',  ( -3.491481338843133355E-15, 1.224646799147353207E-16, -1.000000000000000000 ) ) ;
#191 = COLOUR_RGB ( '',0.8980392156862745390, 0.9176470588235293713, 0.9294117647058823817 ) ;
#192 = CARTESIAN_POINT ( 'NONE',  ( 1.990144363140586139E-13, -6.980486755139912911E-15, 57.00000000000000000 ) ) ;
#193 = DIRECTION ( 'NONE',  ( -3.491481338843133355E-15, 1.224646799147343593E-16, -1.000000000000000000 ) ) ;
#194 = PRODUCT_RELATED_PRODUCT_CATEGORY ( 'part', '', ( #6 ) ) ;
#195 = VERTEX_POINT ( 'NONE', #87 ) ;
#196 = CARTESIAN_POINT ( 'NONE',  ( -4.275831445896958607E-31, 2.950000000000000178, -1.224646799147353454E-16 ) ) ;
#197 = ORIENTED_EDGE ( 'NONE', *, *, #290, .T. ) ;
#198 = COLOUR_RGB ( '',0.8980392156862745390, 0.9176470588235293713, 0.9294117647058823817 ) ;
#199 = MECHANICAL_DESIGN_GEOMETRIC_PRESENTATION_REPRESENTATION (  '', ( #338 ), #127 ) ;
#200 = DIRECTION ( 'NONE',  ( 3.491481338843133355E-15, -0.000000000000000000, 1.000000000000000000 ) ) ;
#201 = ORIENTED_EDGE ( 'NONE', *, *, #155, .T. ) ;
#202 = CARTESIAN_POINT ( 'NONE',  ( 2.950000000000052136, 0.000000000000000000, 14.99999999999998757 ) ) ;
#203 = ORIENTED_EDGE ( 'NONE', *, *, #155, .F. ) ;
#204 = DIRECTION ( 'NONE',  ( -3.491481338843133355E-15, 1.224646799147343593E-16, -1.000000000000000000 ) ) ;
#205 = SURFACE_STYLE_FILL_AREA ( #97 ) ;
#206 = ORIENTED_EDGE ( 'NONE', *, *, #180, .T. ) ;
#207 = CONICAL_SURFACE ( 'NONE', #215, 2.950000000000000178, 0.3450620389298120205 ) ;
#208 =( NAMED_UNIT ( * ) SI_UNIT ( $, .STERADIAN. ) SOLID_ANGLE_UNIT ( ) );
#209 = ORIENTED_EDGE ( 'NONE', *, *, #142, .F. ) ;
#210 =( GEOMETRIC_REPRESENTATION_CONTEXT ( 3 ) GLOBAL_UNCERTAINTY_ASSIGNED_CONTEXT ( ( #95 ) ) GLOBAL_UNIT_ASSIGNED_CONTEXT ( ( #70, #262, #230 ) ) REPRESENTATION_CONTEXT ( 'NONE', 'WORKASPACE' ) );
#211 = CARTESIAN_POINT ( 'NONE',  ( 1.969195475107526708E-13, -6.907007947191070402E-15, 56.39999999999998437 ) ) ;
#212 = EDGE_CURVE ( 'NONE', #91, #167, #8, .T. ) ;
#213 = CARTESIAN_POINT ( 'NONE',  ( 1.969195475107526708E-13, -6.907007947191070402E-15, 56.39999999999998437 ) ) ;
#214 = AXIS2_PLACEMENT_3D ( 'NONE', #213, #239, #297 ) ;
#215 = AXIS2_PLACEMENT_3D ( 'NONE', #131, #317, #56 ) ;
#216 = PRODUCT_DEFINITION_FORMATION_WITH_SPECIFIED_SOURCE ( 'ANY', '', #6, .NOT_KNOWN. ) ;
#217 = EDGE_CURVE ( 'NONE', #288, #195, #257, .T. ) ;
#218 = FACE_OUTER_BOUND ( 'NONE', #16, .T. ) ;
#219 = CIRCLE ( 'NONE', #69, 2.999999999999992895 ) ;
#220 = EDGE_LOOP ( 'NONE', ( #5, #103, #81, #55 ) ) ;
#221 = DIRECTION ( 'NONE',  ( 3.491481338843133355E-15, -0.000000000000000000, 1.000000000000000000 ) ) ;
#222 = DIRECTION ( 'NONE',  ( 1.000000000000000000, 0.000000000000000000, -3.528251137579948177E-15 ) ) ;
#223 = ORIENTED_EDGE ( 'NONE', *, *, #319, .F. ) ;
#224 = FACE_OUTER_BOUND ( 'NONE', #270, .T. ) ;
#225 = EDGE_CURVE ( 'NONE', #167, #91, #64, .T. ) ;
#226 = DIRECTION ( 'NONE',  ( 3.491481338843133355E-15, -0.000000000000000000, 1.000000000000000000 ) ) ;
#227 = FILL_AREA_STYLE_COLOUR ( '', #41 ) ;
#228 = AXIS2_PLACEMENT_3D ( 'NONE', #302, #253, #222 ) ;
#229 = ADVANCED_BREP_SHAPE_REPRESENTATION ( '42577', ( #289, #51, #327 ), #278 ) ;
#230 =( NAMED_UNIT ( * ) SI_UNIT ( $, .STERADIAN. ) SOLID_ANGLE_UNIT ( ) );
#231 = PRODUCT_DEFINITION_SHAPE ( 'NONE', 'NONE',  #313 ) ;
#232 = CARTESIAN_POINT ( 'NONE',  ( 0.000000000000000000, 0.000000000000000000, 0.000000000000000000 ) ) ;
#233 = VERTEX_POINT ( 'NONE', #65 ) ;
#234 = APPLICATION_CONTEXT ( 'automotive_design' ) ;
#235 = CARTESIAN_POINT ( 'NONE',  ( 1.248887237796209029E-13, 2.999999999999988454, 56.39999999999998437 ) ) ;
#236 = AXIS2_PLACEMENT_3D ( 'NONE', #34, #115, #136 ) ;
#237 = CONICAL_SURFACE ( 'NONE', #179, 2.950000000000000178, 0.3450620389298120205 ) ;
#238 = ADVANCED_FACE ( 'NONE', ( #251 ), #17, .T. ) ;
#239 = DIRECTION ( 'NONE',  ( -3.491481338843133355E-15, 1.224646799147343593E-16, -1.000000000000000000 ) ) ;
#240 = CARTESIAN_POINT ( 'NONE',  ( 0.000000000000000000, 0.000000000000000000, 0.000000000000000000 ) ) ;
#241 = CARTESIAN_POINT ( 'NONE',  ( 1.282749433769085655E-30, 2.999999999999995115, 3.673940397442053952E-16 ) ) ;
#242 =( NAMED_UNIT ( * ) PLANE_ANGLE_UNIT ( ) SI_UNIT ( $, .RADIAN. ) );
#243 = SURFACE_STYLE_USAGE ( .BOTH. , #163 ) ;
#244 = AXIS2_PLACEMENT_3D ( 'NONE', #158, #190, #9 ) ;
#245 = FILL_AREA_STYLE_COLOUR ( '', #191 ) ;
#246 = DIRECTION ( 'NONE',  ( 1.000000000000000000, 0.000000000000000000, -3.491481338843133355E-15 ) ) ;
#247 = ORIENTED_EDGE ( 'NONE', *, *, #142, .T. ) ;
#248 = CARTESIAN_POINT ( 'NONE',  ( 5.237222008264699402E-14, 2.949999999999998845, 14.99999999999999822 ) ) ;
#249 = CONICAL_SURFACE ( 'NONE', #295, 2.999999999999995115, 0.7853981633974399523 ) ;
#250 = ORIENTED_EDGE ( 'NONE', *, *, #225, .T. ) ;
#251 = FACE_OUTER_BOUND ( 'NONE', #332, .T. ) ;
#252 = ORIENTED_EDGE ( 'NONE', *, *, #71, .F. ) ;
#253 = DIRECTION ( 'NONE',  ( 3.491481338843133355E-15, -0.000000000000000000, 1.000000000000000000 ) ) ;
#254 = FACE_OUTER_BOUND ( 'NONE', #145, .T. ) ;
#255 = ADVANCED_FACE ( 'NONE', ( #254 ), #173, .T. ) ;
#256 = EDGE_LOOP ( 'NONE', ( #118, #174, #247, #112 ) ) ;
#257 = CIRCLE ( 'NONE', #126, 2.950000000000000178 ) ;
#258 = CARTESIAN_POINT ( 'NONE',  ( 5.237222008264699402E-14, -2.950000000000001954, 14.99999999999999822 ) ) ;
#259 = APPLICATION_CONTEXT ( 'automotive_design' ) ;
#260 = LINE ( 'NONE', #181, #50 ) ;
#261 = ADVANCED_FACE ( 'NONE', ( #102 ), #124, .T. ) ;
#262 =( NAMED_UNIT ( * ) PLANE_ANGLE_UNIT ( ) SI_UNIT ( $, .RADIAN. ) );
#263 =( NAMED_UNIT ( * ) PLANE_ANGLE_UNIT ( ) SI_UNIT ( $, .RADIAN. ) );
#264 = ORIENTED_EDGE ( 'NONE', *, *, #225, .F. ) ;
#265 = EDGE_CURVE ( 'NONE', #292, #233, #29, .T. ) ;
#266 = LINE ( 'NONE', #160, #150 ) ;
#267 =( NAMED_UNIT ( * ) SI_UNIT ( $, .STERADIAN. ) SOLID_ANGLE_UNIT ( ) );
#268 = EDGE_CURVE ( 'NONE', #340, #280, #219, .T. ) ;
#269 = CARTESIAN_POINT ( 'NONE',  ( 1.990144363140586139E-13, -6.980486755139912911E-15, 57.00000000000000000 ) ) ;
#270 = EDGE_LOOP ( 'NONE', ( #42, #61 ) ) ;
#271 = FACE_OUTER_BOUND ( 'NONE', #274, .T. ) ;
#272 = CIRCLE ( 'NONE', #111, 2.399999999999987921 ) ;
#273 = CARTESIAN_POINT ( 'NONE',  ( -2.949999999999946887, 3.612708057484691604E-16, 15.00000000000000888 ) ) ;
#274 = EDGE_LOOP ( 'NONE', ( #206, #321, #252, #120 ) ) ;
#275 = DIRECTION ( 'NONE',  ( 0.000000000000000000, -1.000000000000000000, 0.000000000000000000 ) ) ;
#276 = ADVANCED_FACE ( 'NONE', ( #46 ), #249, .T. ) ;
#277 = CARTESIAN_POINT ( 'NONE',  ( 5.237222008264699402E-14, 0.000000000000000000, 14.99999999999999822 ) ) ;
#278 =( GEOMETRIC_REPRESENTATION_CONTEXT ( 3 ) GLOBAL_UNCERTAINTY_ASSIGNED_CONTEXT ( ( #135 ) ) GLOBAL_UNIT_ASSIGNED_CONTEXT ( ( #162, #263, #94 ) ) REPRESENTATION_CONTEXT ( 'NONE', 'WORKASPACE' ) );
#279 = DIRECTION ( 'NONE',  ( 3.491481338843133355E-15, -0.000000000000000000, 1.000000000000000000 ) ) ;
#280 = VERTEX_POINT ( 'NONE', #307 ) ;
#281 = EDGE_CURVE ( 'NONE', #27, #322, #260, .T. ) ;
#282 = LINE ( 'NONE', #273, #159 ) ;
#283 = SURFACE_STYLE_FILL_AREA ( #128 ) ;
#284 = ORIENTED_EDGE ( 'NONE', *, *, #268, .T. ) ;
#285 = SURFACE_SIDE_STYLE ('',( #205 ) ) ;
#286 = PRESENTATION_LAYER_ASSIGNMENT (  '', '', ( #164 ) ) ;
#287 = CARTESIAN_POINT ( 'NONE',  ( 1.969195475107526708E-13, -6.907007947191070402E-15, 56.39999999999998437 ) ) ;
#288 = VERTEX_POINT ( 'NONE', #305 ) ;
#289 = MANIFOLD_SOLID_BREP ( 'Corps-Déplacer/Copier1[1]', #175 ) ;
#290 = EDGE_CURVE ( 'NONE', #195, #340, #149, .T. ) ;
#291 = PRODUCT_CONTEXT ( 'NONE', #259, 'mechanical' ) ;
#292 = VERTEX_POINT ( 'NONE', #67 ) ;
#293 = CARTESIAN_POINT ( 'NONE',  ( 1.982976465481754348E-13, -2.399999999999995026, 57.00000000000000000 ) ) ;
#294 = DIRECTION ( 'NONE',  ( 3.491481338843133355E-15, -0.000000000000000000, 1.000000000000000000 ) ) ;
#295 = AXIS2_PLACEMENT_3D ( 'NONE', #287, #204, #100 ) ;
#296 = DIRECTION ( 'NONE',  ( 3.327098416510795498E-15, 0.3382550599108752332, 0.9410544694355849060 ) ) ;
#297 = DIRECTION ( 'NONE',  ( 0.000000000000000000, 1.000000000000000000, 0.000000000000000000 ) ) ;
#298 = ORIENTED_EDGE ( 'NONE', *, *, #43, .F. ) ;
#299 = PRESENTATION_STYLE_ASSIGNMENT (( #243 ) ) ;
#300 = AXIS2_PLACEMENT_3D ( 'NONE', #15, #330, #119 ) ;
#301 = DIRECTION ( 'NONE',  ( 2.486899575160351282E-14, -1.000000000000000000, 0.000000000000000000 ) ) ;
#302 = CARTESIAN_POINT ( 'NONE',  ( 5.237222008264699402E-14, 0.000000000000000000, 14.99999999999999822 ) ) ;
#303 = DIRECTION ( 'NONE',  ( 4.275831445896958607E-31, 1.000000000000000000, 1.224646799147353207E-16 ) ) ;
#304 = ORIENTED_EDGE ( 'NONE', *, *, #38, .T. ) ;
#305 = CARTESIAN_POINT ( 'NONE',  ( 5.297939248831439275E-14, 2.949999999999998845, 14.99999999999999822 ) ) ;
#306 = APPLICATION_PROTOCOL_DEFINITION ( 'draft international standard', 'automotive_design', 1998, #259 ) ;
#307 = CARTESIAN_POINT ( 'NONE',  ( 5.285790004848910978E-14, 2.999999999999991118, 15.13910427085457044 ) ) ;
#308 = CIRCLE ( 'NONE', #182, 2.999999999999995115 ) ;
#309 = SURFACE_SIDE_STYLE ('',( #283 ) ) ;
#310 = PRESENTATION_STYLE_ASSIGNMENT (( #152 ) ) ;
#311 = DIRECTION ( 'NONE',  ( -2.468850131082285460E-15, 0.7071067811865416886, -0.7071067811865532349 ) ) ;
#312 = ORIENTED_EDGE ( 'NONE', *, *, #281, .F. ) ;
#313 = PRODUCT_DEFINITION ( 'UNKNOWN', '', #216, #314 ) ;
#314 = PRODUCT_DEFINITION_CONTEXT ( 'detailed design', #234, 'design' ) ;
#315 = DIRECTION ( 'NONE',  ( 1.000000000000000000, 0.000000000000000000, -3.491481338843132961E-15 ) ) ;
#316 = ORIENTED_EDGE ( 'NONE', *, *, #45, .F. ) ;
#317 = DIRECTION ( 'NONE',  ( 3.491481338843133355E-15, -1.224646799147353207E-16, 1.000000000000000000 ) ) ;
#318 = FACE_OUTER_BOUND ( 'NONE', #63, .T. ) ;
#319 = EDGE_CURVE ( 'NONE', #183, #340, #130, .T. ) ;
#320 = PRESENTATION_LAYER_ASSIGNMENT (  '', '', ( #79 ) ) ;
#321 = ORIENTED_EDGE ( 'NONE', *, *, #319, .T. ) ;
#322 = VERTEX_POINT ( 'NONE', #235 ) ;
#323 = LINE ( 'NONE', #241, #178 ) ;
#324 = ADVANCED_FACE ( 'NONE', ( #185 ), #237, .T. ) ;
#325 = DIRECTION ( 'NONE',  ( 3.491481338843133355E-15, -0.000000000000000000, 1.000000000000000000 ) ) ;
#326 = AXIS2_PLACEMENT_3D ( 'NONE', #90, #200, #121 ) ;
#327 = AXIS2_PLACEMENT_3D ( 'NONE', #240, #49, #106 ) ;
#328 = EDGE_LOOP ( 'NONE', ( #203, #169, #334, #14 ) ) ;
#329 = DIRECTION ( 'NONE',  ( -1.000000000000000000, 0.000000000000000000, 3.491481338843133355E-15 ) ) ;
#330 = DIRECTION ( 'NONE',  ( 3.491481338843133355E-15, -1.224646799147353207E-16, 1.000000000000000000 ) ) ;
#331 = EDGE_CURVE ( 'NONE', #233, #292, #333, .T. ) ;
#332 = EDGE_LOOP ( 'NONE', ( #123, #18 ) ) ;
#333 = CIRCLE ( 'NONE', #86, 2.950000000000000178 ) ;
#334 = ORIENTED_EDGE ( 'NONE', *, *, #281, .T. ) ;
#335 = DIRECTION ( 'NONE',  ( -3.491481338843133355E-15, 1.224646799147353207E-16, -1.000000000000000000 ) ) ;
#336 = EDGE_LOOP ( 'NONE', ( #75, #68 ) ) ;
#337 = MECHANICAL_DESIGN_GEOMETRIC_PRESENTATION_REPRESENTATION (  '', ( #79 ), #210 ) ;
#338 = STYLED_ITEM ( 'NONE', ( #310 ), #229 ) ;
#339 = DIRECTION ( 'NONE',  ( 3.491481338843133355E-15, -0.000000000000000000, 1.000000000000000000 ) ) ;
#340 = VERTEX_POINT ( 'NONE', #113 ) ;
#341 = AXIS2_PLACEMENT_3D ( 'NONE', #78, #10, #77 ) ;
#342 = UNCERTAINTY_MEASURE_WITH_UNIT (LENGTH_MEASURE( 1.000000000000000082E-05 ), #343, 'distance_accuracy_value', 'NONE');
#343 =( LENGTH_UNIT ( ) NAMED_UNIT ( * ) SI_UNIT ( .MILLI., .METRE. ) );
ENDSEC;
END-ISO-10303-21;
