ISO-10303-21;
HEADER;
FILE_DESCRIPTION (( 'STEP AP203' ),
    '1' );
FILE_NAME ('42562.step',
    '2021-11-01T10:35:18',
    ( '' ),
    ( '' ),
    'SwSTEP 2.0',
    'SolidWorks 2019',
    '' );
FILE_SCHEMA (( 'CONFIG_CONTROL_DESIGN' ));
ENDSEC;

DATA;
#1 = DIRECTION ( 'NONE',  ( 3.491481338843133355E-15, -1.227517819005651059E-16, 1.000000000000000000 ) ) ;
#2 = FACE_OUTER_BOUND ( 'NONE', #104, .T. ) ;
#3 = DIRECTION ( 'NONE',  ( -3.491481338843133355E-15, 1.224646799147353207E-16, -1.000000000000000000 ) ) ;
#4 = DATE_AND_TIME ( #197, #69 ) ;
#5 = APPLICATION_PROTOCOL_DEFINITION ( 'international standard', 'config_control_design', 1994, #204 ) ;
#6 = AXIS2_PLACEMENT_3D ( 'NONE', #92, #227, #16 ) ;
#7 = EDGE_CURVE ( 'NONE', #180, #180, #11, .T. ) ;
#8 = PERSON_AND_ORGANIZATION ( #140, #145 ) ;
#9 = AXIS2_PLACEMENT_3D ( 'NONE', #175, #186, #73 ) ;
#10 = EDGE_LOOP ( 'NONE', ( #205 ) ) ;
#11 = CIRCLE ( 'NONE', #6, 3.499999999999994227 ) ;
#12 = DIRECTION ( 'NONE',  ( 0.0000000000000000000, 1.000000000000000000, 0.0000000000000000000 ) ) ;
#13 = ADVANCED_FACE ( 'NONE', ( #57 ), #208, .F. ) ;
#14 = DIRECTION ( 'NONE',  ( -4.340327956931570986E-31, -1.000000000000000000, -1.227517819005651059E-16 ) ) ;
#15 = DIRECTION ( 'NONE',  ( 0.0000000000000000000, -1.000000000000000000, 0.0000000000000000000 ) ) ;
#16 = DIRECTION ( 'NONE',  ( 0.0000000000000000000, 1.000000000000000000, 0.0000000000000000000 ) ) ;
#17 = FACE_OUTER_BOUND ( 'NONE', #91, .T. ) ;
#18 = CALENDAR_DATE ( 2021, 1, 11 ) ;
#19 = MECHANICAL_CONTEXT ( 'NONE', #189, 'mechanical' ) ;
#20 = CARTESIAN_POINT ( 'NONE',  ( 4.538925740496072731E-14, -3.499999999999997780, 12.99999999999999822 ) ) ;
#21 = APPROVAL ( #130, 'UNSPECIFIED' ) ;
#22 = CC_DESIGN_SECURITY_CLASSIFICATION ( #105, ( #177 ) ) ;
#23 = ADVANCED_FACE ( 'NONE', ( #79 ), #226, .F. ) ;
#24 = CONICAL_SURFACE ( 'NONE', #170, 3.499999999999994227, 0.7853981633974344012 ) ;
#25 = CC_DESIGN_APPROVAL ( #21, ( #105 ) ) ;
#26 = EDGE_LOOP ( 'NONE', ( #184 ) ) ;
#27 = MANIFOLD_SOLID_BREP ( 'Corps-Déplacer/Copier1[2]', #159 ) ;
#28 = FACE_OUTER_BOUND ( 'NONE', #185, .T. ) ;
#29 = CARTESIAN_POINT ( 'NONE',  ( 2.182175836776957779E-13, -7.654042494670956226E-15, 62.49999999999998579 ) ) ;
#30 = MANIFOLD_SOLID_BREP ( 'Corps-Déplacer/Copier1[1]', #149 ) ;
#31 = AXIS2_PLACEMENT_3D ( 'NONE', #132, #209, #152 ) ;
#32 =( GEOMETRIC_REPRESENTATION_CONTEXT ( 3 ) GLOBAL_UNCERTAINTY_ASSIGNED_CONTEXT ( ( #168 ) ) GLOBAL_UNIT_ASSIGNED_CONTEXT ( ( #192, #200, #42 ) ) REPRESENTATION_CONTEXT ( 'NONE', 'WORKASPACE' ) );
#33 = LOCAL_TIME ( 11, 35, 18.00000000000000000, #222 ) ;
#34 = CARTESIAN_POINT ( 'NONE',  ( 0.0000000000000000000, 0.0000000000000000000, 0.0000000000000000000 ) ) ;
#35 = PRODUCT_DEFINITION ( 'UNKNOWN', '', #177, #75 ) ;
#36 = FACE_OUTER_BOUND ( 'NONE', #53, .T. ) ;
#37 = DIRECTION ( 'NONE',  ( -3.491481338843133355E-15, 1.224646799147353207E-16, -1.000000000000000000 ) ) ;
#38 = EDGE_CURVE ( 'NONE', #101, #101, #241, .T. ) ;
#39 = COORDINATED_UNIVERSAL_TIME_OFFSET ( 1, 0, .AHEAD. ) ;
#40 = CC_DESIGN_APPROVAL ( #212, ( #35 ) ) ;
#41 = CC_DESIGN_PERSON_AND_ORGANIZATION_ASSIGNMENT ( #8, #235, ( #195 ) ) ;
#42 =( NAMED_UNIT ( * ) SI_UNIT ( $, .STERADIAN. ) SOLID_ANGLE_UNIT ( ) );
#43 = CARTESIAN_POINT ( 'NONE',  ( -2.826678934591018120E-30, -3.300000000000002487, -8.095930237815932432E-16 ) ) ;
#44 = EDGE_CURVE ( 'NONE', #178, #178, #199, .T. ) ;
#45 = AXIS2_PLACEMENT_3D ( 'NONE', #83, #160, #233 ) ;
#46 = PERSON_AND_ORGANIZATION ( #140, #145 ) ;
#47 = ORIENTED_EDGE ( 'NONE', *, *, #38, .T. ) ;
#48 = APPROVAL_DATE_TIME ( #143, #165 ) ;
#49 = ORIENTED_EDGE ( 'NONE', *, *, #59, .F. ) ;
#50 = APPROVAL_PERSON_ORGANIZATION ( #56, #21, #95 ) ;
#51 = EDGE_CURVE ( 'NONE', #161, #161, #125, .T. ) ;
#52 = CALENDAR_DATE ( 2021, 1, 11 ) ;
#53 = EDGE_LOOP ( 'NONE', ( #146 ) ) ;
#54 = ORIENTED_EDGE ( 'NONE', *, *, #7, .T. ) ;
#55 = EDGE_CURVE ( 'NONE', #217, #217, #109, .T. ) ;
#56 = PERSON_AND_ORGANIZATION ( #140, #145 ) ;
#57 = FACE_OUTER_BOUND ( 'NONE', #203, .T. ) ;
#58 = CARTESIAN_POINT ( 'NONE',  ( 4.538925740496072731E-14, 2.999519565323704815E-32, 12.99999999999999822 ) ) ;
#59 = EDGE_CURVE ( 'NONE', #231, #231, #120, .T. ) ;
#60 = FACE_OUTER_BOUND ( 'NONE', #223, .T. ) ;
#61 = APPROVAL_PERSON_ORGANIZATION ( #155, #165, #213 ) ;
#62 = CARTESIAN_POINT ( 'NONE',  ( 4.538925740496072731E-14, 2.999519565323704815E-32, 12.99999999999999822 ) ) ;
#63 = DIRECTION ( 'NONE',  ( 3.491481338843133355E-15, -1.226656096638776648E-16, 1.000000000000000000 ) ) ;
#64 = FACE_OUTER_BOUND ( 'NONE', #10, .T. ) ;
#65 = APPROVAL_DATE_TIME ( #84, #212 ) ;
#66 = DIRECTION ( 'NONE',  ( 3.491481338843133355E-15, -1.226656096638776648E-16, 1.000000000000000000 ) ) ;
#67 = COORDINATED_UNIVERSAL_TIME_OFFSET ( 1, 0, .AHEAD. ) ;
#68 = AXIS2_PLACEMENT_3D ( 'NONE', #93, #190, #77 ) ;
#69 = LOCAL_TIME ( 11, 35, 18.00000000000000000, #67 ) ;
#70 = ORIENTED_EDGE ( 'NONE', *, *, #55, .F. ) ;
#71 = LOCAL_TIME ( 11, 35, 18.00000000000000000, #133 ) ;
#72 = EDGE_LOOP ( 'NONE', ( #129 ) ) ;
#73 = DIRECTION ( 'NONE',  ( -4.282846870592448247E-31, -1.000000000000000000, -1.226656096638776648E-16 ) ) ;
#74 = CIRCLE ( 'NONE', #214, 3.499999999999999556 ) ;
#75 = DESIGN_CONTEXT ( 'detailed design', #204, 'design' ) ;
#76 = DIRECTION ( 'NONE',  ( 3.491481338843133355E-15, -1.227517819005651059E-16, 1.000000000000000000 ) ) ;
#77 = DIRECTION ( 'NONE',  ( -4.275831445896958607E-31, -1.000000000000000000, -1.224646799147353207E-16 ) ) ;
#78 = CALENDAR_DATE ( 2021, 1, 11 ) ;
#79 = FACE_OUTER_BOUND ( 'NONE', #236, .T. ) ;
#80 = AXIS2_PLACEMENT_3D ( 'NONE', #230, #228, #150 ) ;
#81 = DIRECTION ( 'NONE',  ( -4.285855558155654155E-31, -1.000000000000000000, -1.227517819005651059E-16 ) ) ;
#82 = COORDINATED_UNIVERSAL_TIME_OFFSET ( 1, 0, .AHEAD. ) ;
#83 = CARTESIAN_POINT ( 'NONE',  ( 0.0000000000000000000, 0.0000000000000000000, 0.0000000000000000000 ) ) ;
#84 = DATE_AND_TIME ( #18, #89 ) ;
#85 = ADVANCED_FACE ( 'NONE', ( #36, #96 ), #24, .T. ) ;
#86 = PERSON_AND_ORGANIZATION ( #140, #145 ) ;
#87 = AXIS2_PLACEMENT_3D ( 'NONE', #174, #1, #14 ) ;
#88 = ORIENTED_EDGE ( 'NONE', *, *, #220, .T. ) ;
#89 = LOCAL_TIME ( 11, 35, 18.00000000000000000, #82 ) ;
#90 = PERSON_AND_ORGANIZATION_ROLE ( 'creator' ) ;
#91 = EDGE_LOOP ( 'NONE', ( #88 ) ) ;
#92 = CARTESIAN_POINT ( 'NONE',  ( 2.199633243471174140E-13, -7.715274834628325378E-15, 63.00000000000000000 ) ) ;
#93 = CARTESIAN_POINT ( 'NONE',  ( -2.137915316827909123E-30, 7.498797488830082527E-32, -6.123232832561222497E-16 ) ) ;
#94 = DIRECTION ( 'NONE',  ( -3.491481338843133355E-15, 1.224646799147353207E-16, -1.000000000000000000 ) ) ;
#95 = APPROVAL_ROLE ( '' ) ;
#96 = FACE_BOUND ( 'NONE', #108, .T. ) ;
#97 = CYLINDRICAL_SURFACE ( 'NONE', #238, 3.999999999999991562 ) ;
#98 = DIRECTION ( 'NONE',  ( 3.491481338843133355E-15, -1.227517819005651059E-16, 1.000000000000000000 ) ) ;
#99 = PERSON_AND_ORGANIZATION ( #140, #145 ) ;
#100 = CARTESIAN_POINT ( 'NONE',  ( 2.182175836776957779E-13, 3.999999999999987121, 62.49999999999998579 ) ) ;
#101 = VERTEX_POINT ( 'NONE', #20 ) ;
#102 = CONICAL_SURFACE ( 'NONE', #158, 3.499999999999999556, 0.7853981633974428389 ) ;
#103 = CARTESIAN_POINT ( 'NONE',  ( 5.510913009090908506E-14, 3.999999999999989786, 15.78388218141498989 ) ) ;
#104 = EDGE_LOOP ( 'NONE', ( #206 ) ) ;
#105 = SECURITY_CLASSIFICATION ( '', '', #127 ) ;
#106 = PERSON_AND_ORGANIZATION_ROLE ( 'classification_officer' ) ;
#107 = ORIENTED_EDGE ( 'NONE', *, *, #7, .F. ) ;
#108 = EDGE_LOOP ( 'NONE', ( #54 ) ) ;
#109 = CIRCLE ( 'NONE', #141, 3.499999999999996003 ) ;
#110 = CC_DESIGN_APPROVAL ( #165, ( #177 ) ) ;
#111 = DATE_AND_TIME ( #78, #71 ) ;
#112 = FACE_OUTER_BOUND ( 'NONE', #219, .T. ) ;
#113 = CC_DESIGN_DATE_AND_TIME_ASSIGNMENT ( #111, #224, ( #105 ) ) ;
#114 = CARTESIAN_POINT ( 'NONE',  ( 4.538925740496072731E-14, -1.595773164707346130E-15, 12.99999999999999822 ) ) ;
#115 = AXIS2_PLACEMENT_3D ( 'NONE', #58, #188, #131 ) ;
#116 = APPROVAL_DATE_TIME ( #225, #21 ) ;
#117 = CYLINDRICAL_SURFACE ( 'NONE', #121, 3.499999999999995559 ) ;
#118 = PRODUCT_RELATED_PRODUCT_CATEGORY ( 'detail', '', ( #195 ) ) ;
#119 = CARTESIAN_POINT ( 'NONE',  ( 2.199633243471174140E-13, 2.624579619658234940E-32, 63.00000000000000000 ) ) ;
#120 = CIRCLE ( 'NONE', #9, 3.300000000000002487 ) ;
#121 = AXIS2_PLACEMENT_3D ( 'NONE', #210, #98, #81 ) ;
#122 = CALENDAR_DATE ( 2021, 1, 11 ) ;
#123 = CARTESIAN_POINT ( 'NONE',  ( 2.199633243471174140E-13, 3.499999999999986677, 63.00000000000000000 ) ) ;
#124 = APPROVAL_ROLE ( '' ) ;
#125 = CIRCLE ( 'NONE', #176, 3.999999999999994671 ) ;
#126 = CC_DESIGN_PERSON_AND_ORGANIZATION_ASSIGNMENT ( #46, #221, ( #177 ) ) ;
#127 = SECURITY_CLASSIFICATION_LEVEL ( 'unclassified' ) ;
#128 = ADVANCED_BREP_SHAPE_REPRESENTATION ( '42562', ( #30, #27, #45 ), #32 ) ;
#129 = ORIENTED_EDGE ( 'NONE', *, *, #55, .T. ) ;
#130 = APPROVAL_STATUS ( 'not_yet_approved' ) ;
#131 = DIRECTION ( 'NONE',  ( -4.275831445896958607E-31, -1.000000000000000000, -1.224646799147353207E-16 ) ) ;
#132 = CARTESIAN_POINT ( 'NONE',  ( 5.510913009090908506E-14, -2.076449974346729742E-15, 15.78388218141498989 ) ) ;
#133 = COORDINATED_UNIVERSAL_TIME_OFFSET ( 1, 0, .AHEAD. ) ;
#134 = FACE_OUTER_BOUND ( 'NONE', #72, .T. ) ;
#135 = DIRECTION ( 'NONE',  ( 3.491481338843133355E-15, -1.224646799147353207E-16, 1.000000000000000000 ) ) ;
#136 = DIRECTION ( 'NONE',  ( -4.402125587170824932E-31, -1.000000000000000000, -1.239088197126290817E-16 ) ) ;
#137 = APPROVAL_STATUS ( 'not_yet_approved' ) ;
#138 = PRODUCT_DEFINITION_SHAPE ( 'NONE', 'NONE',  #35 ) ;
#139 = DIRECTION ( 'NONE',  ( -4.402125587170824932E-31, -1.000000000000000000, -1.239088197126290817E-16 ) ) ;
#140 = PERSON ( 'UNSPECIFIED', 'UNSPECIFIED', 'UNSPECIFIED', ('UNSPECIFIED'), ('UNSPECIFIED'), ('UNSPECIFIED') ) ;
#141 = AXIS2_PLACEMENT_3D ( 'NONE', #114, #76, #15 ) ;
#142 = DATE_TIME_ROLE ( 'creation_date' ) ;
#143 = DATE_AND_TIME ( #122, #232 ) ;
#144 = ORIENTED_EDGE ( 'NONE', *, *, #59, .T. ) ;
#145 = ORGANIZATION ( 'UNSPECIFIED', 'UNSPECIFIED', '' ) ;
#146 = ORIENTED_EDGE ( 'NONE', *, *, #51, .F. ) ;
#147 = DIRECTION ( 'NONE',  ( 4.275831445896958607E-31, 1.000000000000000000, 1.224646799147353207E-16 ) ) ;
#148 = AXIS2_PLACEMENT_3D ( 'NONE', #119, #37, #147 ) ;
#149 = CLOSED_SHELL ( 'NONE', ( #173, #85, #13, #171, #23 ) ) ;
#150 = DIRECTION ( 'NONE',  ( 0.0000000000000000000, -1.000000000000000000, 0.0000000000000000000 ) ) ;
#151 = DIRECTION ( 'NONE',  ( -4.275831445896958607E-31, -1.000000000000000000, -1.224646799147353207E-16 ) ) ;
#152 = DIRECTION ( 'NONE',  ( 0.0000000000000000000, 1.000000000000000000, 0.0000000000000000000 ) ) ;
#153 = AXIS2_PLACEMENT_3D ( 'NONE', #62, #135, #151 ) ;
#154 = CARTESIAN_POINT ( 'NONE',  ( 6.982962677686224309E-16, -2.453312193277541154E-17, 0.1999999999999987899 ) ) ;
#155 = PERSON_AND_ORGANIZATION ( #140, #145 ) ;
#156 = VERTEX_POINT ( 'NONE', #194 ) ;
#157 = CC_DESIGN_PERSON_AND_ORGANIZATION_ASSIGNMENT ( #202, #106, ( #105 ) ) ;
#158 = AXIS2_PLACEMENT_3D ( 'NONE', #234, #66, #139 ) ;
#159 = CLOSED_SHELL ( 'NONE', ( #191, #179, #237, #164 ) ) ;
#160 = DIRECTION ( 'NONE',  ( 0.0000000000000000000, 0.0000000000000000000, 1.000000000000000000 ) ) ;
#161 = VERTEX_POINT ( 'NONE', #100 ) ;
#162 = ORIENTED_EDGE ( 'NONE', *, *, #44, .F. ) ;
#163 = EDGE_LOOP ( 'NONE', ( #162 ) ) ;
#164 = ADVANCED_FACE ( 'NONE', ( #28 ), #172, .F. ) ;
#165 = APPROVAL ( #137, 'UNSPECIFIED' ) ;
#166 = FACE_OUTER_BOUND ( 'NONE', #26, .T. ) ;
#167 = SHAPE_DEFINITION_REPRESENTATION ( #138, #128 ) ;
#168 = UNCERTAINTY_MEASURE_WITH_UNIT (LENGTH_MEASURE( 1.000000000000000082E-05 ), #192, 'distance_accuracy_value', 'NONE');
#169 = PLANE ( 'NONE',  #153 ) ;
#170 = AXIS2_PLACEMENT_3D ( 'NONE', #207, #3, #12 ) ;
#171 = ADVANCED_FACE ( 'NONE', ( #134, #166 ), #193, .F. ) ;
#172 = PLANE ( 'NONE',  #68 ) ;
#173 = ADVANCED_FACE ( 'NONE', ( #2, #240 ), #97, .T. ) ;
#174 = CARTESIAN_POINT ( 'NONE',  ( 4.538925740496072100E-14, -1.734723475976807094E-15, 12.99999999999999645 ) ) ;
#175 = CARTESIAN_POINT ( 'NONE',  ( -1.413339467295509060E-30, 2.305574682352866232E-32, -4.047965118907966216E-16 ) ) ;
#176 = AXIS2_PLACEMENT_3D ( 'NONE', #29, #187, #242 ) ;
#177 = PRODUCT_DEFINITION_FORMATION_WITH_SPECIFIED_SOURCE ( 'ANY', '', #195, .NOT_KNOWN. ) ;
#178 = VERTEX_POINT ( 'NONE', #103 ) ;
#179 = ADVANCED_FACE ( 'NONE', ( #112 ), #169, .T. ) ;
#180 = VERTEX_POINT ( 'NONE', #123 ) ;
#181 = PERSON_AND_ORGANIZATION ( #140, #145 ) ;
#182 = APPROVAL_PERSON_ORGANIZATION ( #86, #212, #124 ) ;
#183 = ORIENTED_EDGE ( 'NONE', *, *, #38, .F. ) ;
#184 = ORIENTED_EDGE ( 'NONE', *, *, #44, .T. ) ;
#185 = EDGE_LOOP ( 'NONE', ( #49 ) ) ;
#186 = DIRECTION ( 'NONE',  ( 3.491481338843133355E-15, -1.226656096638776648E-16, 1.000000000000000000 ) ) ;
#187 = DIRECTION ( 'NONE',  ( -3.491481338843133355E-15, 1.224646799147353207E-16, -1.000000000000000000 ) ) ;
#188 = DIRECTION ( 'NONE',  ( 3.491481338843133355E-15, -1.224646799147353207E-16, 1.000000000000000000 ) ) ;
#189 = APPLICATION_CONTEXT ( 'configuration controlled 3d designs of mechanical parts and assemblies' ) ;
#190 = DIRECTION ( 'NONE',  ( 3.491481338843133355E-15, -1.224646799147353207E-16, 1.000000000000000000 ) ) ;
#191 = ADVANCED_FACE ( 'NONE', ( #60, #17 ), #117, .T. ) ;
#192 =( LENGTH_UNIT ( ) NAMED_UNIT ( * ) SI_UNIT ( .MILLI., .METRE. ) );
#193 = TOROIDAL_SURFACE ( 'NONE', #87, 11.49999999999999822, 8.000000000000000000 ) ;
#194 = CARTESIAN_POINT ( 'NONE',  ( 6.982962677686208532E-16, -3.499999999999999556, 0.1999999999999983458 ) ) ;
#195 = PRODUCT ( '42562', '42562', '', ( #19 ) ) ;
#196 = CARTESIAN_POINT ( 'NONE',  ( 4.538925740496072731E-14, -3.499999999999997780, 12.99999999999999822 ) ) ;
#197 = CALENDAR_DATE ( 2021, 1, 11 ) ;
#198 = CC_DESIGN_PERSON_AND_ORGANIZATION_ASSIGNMENT ( #99, #216, ( #35 ) ) ;
#199 = CIRCLE ( 'NONE', #31, 3.999999999999991562 ) ;
#200 =( NAMED_UNIT ( * ) PLANE_ANGLE_UNIT ( ) SI_UNIT ( $, .RADIAN. ) );
#201 = CC_DESIGN_PERSON_AND_ORGANIZATION_ASSIGNMENT ( #181, #90, ( #177 ) ) ;
#202 = PERSON_AND_ORGANIZATION ( #140, #145 ) ;
#203 = EDGE_LOOP ( 'NONE', ( #107 ) ) ;
#204 = APPLICATION_CONTEXT ( 'configuration controlled 3d designs of mechanical parts and assemblies' ) ;
#205 = ORIENTED_EDGE ( 'NONE', *, *, #220, .F. ) ;
#206 = ORIENTED_EDGE ( 'NONE', *, *, #51, .T. ) ;
#207 = CARTESIAN_POINT ( 'NONE',  ( 2.199633243471174140E-13, -7.715274834628325378E-15, 63.00000000000000000 ) ) ;
#208 = PLANE ( 'NONE',  #148 ) ;
#209 = DIRECTION ( 'NONE',  ( -3.491481338843133355E-15, 1.227517819005651059E-16, -1.000000000000000000 ) ) ;
#210 = CARTESIAN_POINT ( 'NONE',  ( -6.413731847436034514E-31, 0.0000000000000000000, -1.836965810494968570E-16 ) ) ;
#211 = FACE_BOUND ( 'NONE', #239, .T. ) ;
#212 = APPROVAL ( #215, 'UNSPECIFIED' ) ;
#213 = APPROVAL_ROLE ( '' ) ;
#214 = AXIS2_PLACEMENT_3D ( 'NONE', #154, #63, #136 ) ;
#215 = APPROVAL_STATUS ( 'not_yet_approved' ) ;
#216 = PERSON_AND_ORGANIZATION_ROLE ( 'creator' ) ;
#217 = VERTEX_POINT ( 'NONE', #196 ) ;
#218 = APPLICATION_PROTOCOL_DEFINITION ( 'international standard', 'config_control_design', 1994, #189 ) ;
#219 = EDGE_LOOP ( 'NONE', ( #47 ) ) ;
#220 = EDGE_CURVE ( 'NONE', #156, #156, #74, .T. ) ;
#221 = PERSON_AND_ORGANIZATION_ROLE ( 'design_supplier' ) ;
#222 = COORDINATED_UNIVERSAL_TIME_OFFSET ( 1, 0, .AHEAD. ) ;
#223 = EDGE_LOOP ( 'NONE', ( #183 ) ) ;
#224 = DATE_TIME_ROLE ( 'classification_date' ) ;
#225 = DATE_AND_TIME ( #52, #33 ) ;
#226 = PLANE ( 'NONE',  #115 ) ;
#227 = DIRECTION ( 'NONE',  ( -3.491481338843133355E-15, 1.224646799147353207E-16, -1.000000000000000000 ) ) ;
#228 = DIRECTION ( 'NONE',  ( 3.491481338843133355E-15, -1.227517819005651059E-16, 1.000000000000000000 ) ) ;
#229 = DIRECTION ( 'NONE',  ( 4.275831445896958607E-31, 1.000000000000000000, 1.224646799147352961E-16 ) ) ;
#230 = CARTESIAN_POINT ( 'NONE',  ( 4.538925740496072731E-14, -1.595773164707346130E-15, 12.99999999999999822 ) ) ;
#231 = VERTEX_POINT ( 'NONE', #43 ) ;
#232 = LOCAL_TIME ( 11, 35, 18.00000000000000000, #39 ) ;
#233 = DIRECTION ( 'NONE',  ( 1.000000000000000000, 0.0000000000000000000, 0.0000000000000000000 ) ) ;
#234 = CARTESIAN_POINT ( 'NONE',  ( 6.982962677686224309E-16, -2.453312193277541154E-17, 0.1999999999999987899 ) ) ;
#235 = PERSON_AND_ORGANIZATION_ROLE ( 'design_owner' ) ;
#236 = EDGE_LOOP ( 'NONE', ( #70 ) ) ;
#237 = ADVANCED_FACE ( 'NONE', ( #211, #64 ), #102, .T. ) ;
#238 = AXIS2_PLACEMENT_3D ( 'NONE', #34, #94, #229 ) ;
#239 = EDGE_LOOP ( 'NONE', ( #144 ) ) ;
#240 = FACE_OUTER_BOUND ( 'NONE', #163, .T. ) ;
#241 = CIRCLE ( 'NONE', #80, 3.499999999999996003 ) ;
#242 = DIRECTION ( 'NONE',  ( 0.0000000000000000000, 1.000000000000000000, 0.0000000000000000000 ) ) ;
#243 = CC_DESIGN_DATE_AND_TIME_ASSIGNMENT ( #4, #142, ( #35 ) ) ;
ENDSEC;
END-ISO-10303-21;
