ISO-10303-21;
HEADER;
FILE_DESCRIPTION (( 'STEP AP214' ),
    '1' );
FILE_NAME ('42561.step',
    '2024-04-04T09:32:58',
    ( '' ),
    ( '' ),
    'SwSTEP 2.0',
    'SolidWorks 2022',
    '' );
FILE_SCHEMA (( 'AUTOMOTIVE_DESIGN' ));
ENDSEC;

DATA;
#1 = PRESENTATION_LAYER_ASSIGNMENT (  '', '', ( #317 ) ) ;
#2 = FACE_OUTER_BOUND ( 'NONE', #254, .T. ) ;
#3 = CARTESIAN_POINT ( 'NONE',  ( 2.478951750578624304E-13, -8.694992273946206563E-15, 71.00000000000000000 ) ) ;
#4 = FACE_OUTER_BOUND ( 'NONE', #337, .T. ) ;
#5 = FACE_OUTER_BOUND ( 'NONE', #289, .T. ) ;
#6 = UNCERTAINTY_MEASURE_WITH_UNIT (LENGTH_MEASURE( 1.000000000000000082E-05 ), #294, 'distance_accuracy_value', 'NONE');
#7 = MANIFOLD_SOLID_BREP ( 'Corps-Déplacer/Copier1[2]', #10 ) ;
#8 = FACE_OUTER_BOUND ( 'NONE', #21, .T. ) ;
#9 = VERTEX_POINT ( 'NONE', #153 ) ;
#10 = CLOSED_SHELL ( 'NONE', ( #103, #257, #90, #312 ) ) ;
#11 = ADVANCED_FACE ( 'NONE', ( #279 ), #210, .T. ) ;
#12 = DIRECTION ( 'NONE',  ( 1.000000000000000000, 0.000000000000000000, -3.504491870660218137E-15 ) ) ;
#13 = VERTEX_POINT ( 'NONE', #206 ) ;
#14 = DIRECTION ( 'NONE',  ( -3.491481338843133355E-15, 1.224646799147353207E-16, -1.000000000000000000 ) ) ;
#15 = VERTEX_POINT ( 'NONE', #315 ) ;
#16 = CARTESIAN_POINT ( 'NONE',  ( 2.513866563967056016E-13, -8.817456953860941711E-15, 72.00000000000000000 ) ) ;
#17 = DIRECTION ( 'NONE',  ( 1.000000000000000000, 0.000000000000000000, -3.491481338843133355E-15 ) ) ;
#18 = ORIENTED_EDGE ( 'NONE', *, *, #305, .T. ) ;
#19 = EDGE_CURVE ( 'NONE', #13, #9, #94, .T. ) ;
#20 =( LENGTH_UNIT ( ) NAMED_UNIT ( * ) SI_UNIT ( .MILLI., .METRE. ) );
#21 = EDGE_LOOP ( 'NONE', ( #200, #93, #339, #332 ) ) ;
#22 = DIRECTION ( 'NONE',  ( -3.491481338843133355E-15, 1.224646799147349263E-16, -1.000000000000000000 ) ) ;
#23 = ORIENTED_EDGE ( 'NONE', *, *, #288, .T. ) ;
#24 = ORIENTED_EDGE ( 'NONE', *, *, #109, .F. ) ;
#25 = PRESENTATION_STYLE_ASSIGNMENT (( #266 ) ) ;
#26 = PRESENTATION_STYLE_ASSIGNMENT (( #45 ) ) ;
#27 = CYLINDRICAL_SURFACE ( 'NONE', #229, 4.949999999999999289 ) ;
#28 = CARTESIAN_POINT ( 'NONE',  ( 2.478951750578624304E-13, -8.694992273946206563E-15, 71.00000000000000000 ) ) ;
#29 = APPLICATION_CONTEXT ( 'automotive_design' ) ;
#30 = DIRECTION ( 'NONE',  ( 3.491481338843133355E-15, -0.000000000000000000, 1.000000000000000000 ) ) ;
#31 = EDGE_CURVE ( 'NONE', #13, #227, #78, .T. ) ;
#32 = CIRCLE ( 'NONE', #314, 4.999999999999997335 ) ;
#33 = DIRECTION ( 'NONE',  ( -3.491481338843133355E-15, 1.224646799147349263E-16, -1.000000000000000000 ) ) ;
#34 = CARTESIAN_POINT ( 'NONE',  ( 8.379555213223520053E-14, 0.000000000000000000, 24.00000000000000000 ) ) ;
#35 = EDGE_CURVE ( 'NONE', #9, #13, #136, .T. ) ;
#36 = DIRECTION ( 'NONE',  ( 0.000000000000000000, 1.000000000000000000, 0.000000000000000000 ) ) ;
#37 = ORIENTED_EDGE ( 'NONE', *, *, #46, .F. ) ;
#38 = ORIENTED_EDGE ( 'NONE', *, *, #46, .T. ) ;
#39 = DIRECTION ( 'NONE',  ( 3.491481338843133355E-15, -0.000000000000000000, 1.000000000000000000 ) ) ;
#40 = DIRECTION ( 'NONE',  ( 1.000000000000000000, 0.000000000000000000, -3.504491870660218137E-15 ) ) ;
#41 = ORIENTED_EDGE ( 'NONE', *, *, #288, .F. ) ;
#42 = EDGE_LOOP ( 'NONE', ( #63, #265, #302, #141 ) ) ;
#43 = ORIENTED_EDGE ( 'NONE', *, *, #74, .T. ) ;
#44 = VERTEX_POINT ( 'NONE', #129 ) ;
#45 = SURFACE_STYLE_USAGE ( .BOTH. , #290 ) ;
#46 = EDGE_CURVE ( 'NONE', #117, #272, #228, .T. ) ;
#47 = DIRECTION ( 'NONE',  ( -3.491481338843133355E-15, 1.224646799147353207E-16, -1.000000000000000000 ) ) ;
#48 =( NAMED_UNIT ( * ) PLANE_ANGLE_UNIT ( ) SI_UNIT ( $, .RADIAN. ) );
#49 = STYLED_ITEM ( 'NONE', ( #67 ), #7 ) ;
#50 = CARTESIAN_POINT ( 'NONE',  ( 2.513866563967056016E-13, -8.817456953860941711E-15, 72.00000000000000000 ) ) ;
#51 = CARTESIAN_POINT ( 'NONE',  ( 2.478951750578624304E-13, 4.999999999999988454, 71.00000000000000000 ) ) ;
#52 = DIRECTION ( 'NONE',  ( -2.468850131082255088E-15, 0.7071067811865504593, -0.7071067811865445751 ) ) ;
#53 = UNCERTAINTY_MEASURE_WITH_UNIT (LENGTH_MEASURE( 1.000000000000000082E-05 ), #238, 'distance_accuracy_value', 'NONE');
#54 = CYLINDRICAL_SURFACE ( 'NONE', #217, 4.999999999999997335 ) ;
#55 = VERTEX_POINT ( 'NONE', #126 ) ;
#56 = CARTESIAN_POINT ( 'NONE',  ( 8.428123209807733522E-14, -2.956187677958626025E-15, 24.13910427085457755 ) ) ;
#57 = MECHANICAL_DESIGN_GEOMETRIC_PRESENTATION_REPRESENTATION (  '', ( #97 ), #303 ) ;
#58 = CARTESIAN_POINT ( 'NONE',  ( 4.950000000000083666, 0.000000000000000000, 23.99999999999998224 ) ) ;
#59 = AXIS2_PLACEMENT_3D ( 'NONE', #56, #271, #36 ) ;
#60 = CIRCLE ( 'NONE', #149, 3.999999999999988898 ) ;
#61 = MECHANICAL_DESIGN_GEOMETRIC_PRESENTATION_REPRESENTATION (  '', ( #49 ), #151 ) ;
#62 = DIRECTION ( 'NONE',  ( -3.491481338843133355E-15, 1.224646799147353207E-16, -1.000000000000000000 ) ) ;
#63 = ORIENTED_EDGE ( 'NONE', *, *, #218, .F. ) ;
#64 = LINE ( 'NONE', #58, #85 ) ;
#65 = CARTESIAN_POINT ( 'NONE',  ( 8.379555213223520053E-14, -4.950000000000002842, 24.00000000000000000 ) ) ;
#66 = ORIENTED_EDGE ( 'NONE', *, *, #178, .F. ) ;
#67 = PRESENTATION_STYLE_ASSIGNMENT (( #311 ) ) ;
#68 =( GEOMETRIC_REPRESENTATION_CONTEXT ( 3 ) GLOBAL_UNCERTAINTY_ASSIGNED_CONTEXT ( ( #53 ) ) GLOBAL_UNIT_ASSIGNED_CONTEXT ( ( #238, #48, #224 ) ) REPRESENTATION_CONTEXT ( 'NONE', 'WORKASPACE' ) );
#69 = ADVANCED_FACE ( 'NONE', ( #4 ), #79, .T. ) ;
#70 = ORIENTED_EDGE ( 'NONE', *, *, #31, .T. ) ;
#71 = DIRECTION ( 'NONE',  ( -3.491481338843133355E-15, 1.224646799147353207E-16, -1.000000000000000000 ) ) ;
#72 = ORIENTED_EDGE ( 'NONE', *, *, #234, .T. ) ;
#73 = CARTESIAN_POINT ( 'NONE',  ( 2.137915722948479303E-31, 4.950000000000000178, 6.123233995736767268E-17 ) ) ;
#74 = EDGE_CURVE ( 'NONE', #256, #15, #335, .T. ) ;
#75 = FACE_OUTER_BOUND ( 'NONE', #330, .T. ) ;
#76 = CARTESIAN_POINT ( 'NONE',  ( 8.379555213223520053E-14, -2.939152317953647894E-15, 24.00000000000000000 ) ) ;
#77 = CIRCLE ( 'NONE', #59, 4.999999999999994671 ) ;
#78 = LINE ( 'NONE', #190, #171 ) ;
#79 = CONICAL_SURFACE ( 'NONE', #274, 4.999999999999997335, 0.7853981633974522758 ) ;
#80 = EDGE_CURVE ( 'NONE', #15, #256, #32, .T. ) ;
#81 = LINE ( 'NONE', #51, #180 ) ;
#82 = CARTESIAN_POINT ( 'NONE',  ( 2.478951750578624304E-13, -8.694992273946206563E-15, 71.00000000000000000 ) ) ;
#83 = AXIS2_PLACEMENT_3D ( 'NONE', #76, #47, #253 ) ;
#84 = DIRECTION ( 'NONE',  ( 3.327098416510789582E-15, 0.3382550599108808398, 0.9410544694355830186 ) ) ;
#85 = VECTOR ( 'NONE', #277, 1000.000000000000000 ) ;
#86 = DIRECTION ( 'NONE',  ( -2.382254525458706031E-15, -0.7071067811865502373, -0.7071067811865449082 ) ) ;
#87 = CARTESIAN_POINT ( 'NONE',  ( 1.667005269775435396E-13, -4.999999999999997335, 24.13910427085457755 ) ) ;
#88 = FACE_OUTER_BOUND ( 'NONE', #230, .T. ) ;
#89 = ORIENTED_EDGE ( 'NONE', *, *, #320, .T. ) ;
#90 = ADVANCED_FACE ( 'NONE', ( #75 ), #268, .F. ) ;
#91 = PLANE ( 'NONE',  #281 ) ;
#92 = ADVANCED_FACE ( 'NONE', ( #162 ), #255, .T. ) ;
#93 = ORIENTED_EDGE ( 'NONE', *, *, #80, .T. ) ;
#94 = CIRCLE ( 'NONE', #131, 4.950000000000000178 ) ;
#95 = AXIS2_PLACEMENT_3D ( 'NONE', #132, #164, #157 ) ;
#96 = SURFACE_STYLE_FILL_AREA ( #232 ) ;
#97 = STYLED_ITEM ( 'NONE', ( #26 ), #142 ) ;
#98 = DIRECTION ( 'NONE',  ( 0.000000000000000000, 1.000000000000000000, 0.000000000000000000 ) ) ;
#99 = DIRECTION ( 'NONE',  ( 0.000000000000000000, 1.000000000000000000, 0.000000000000000000 ) ) ;
#100 = DIRECTION ( 'NONE',  ( 0.000000000000000000, 1.000000000000000000, 0.000000000000000000 ) ) ;
#101 = CARTESIAN_POINT ( 'NONE',  ( 0.000000000000000000, 0.000000000000000000, 0.000000000000000000 ) ) ;
#102 = DIRECTION ( 'NONE',  ( 3.491481338843133355E-15, -0.000000000000000000, 1.000000000000000000 ) ) ;
#103 = ADVANCED_FACE ( 'NONE', ( #2 ), #27, .T. ) ;
#104 = AXIS2_PLACEMENT_3D ( 'NONE', #201, #39, #249 ) ;
#105 = DIRECTION ( 'NONE',  ( 1.000000000000000000, 0.000000000000000000, -3.504491870660216954E-15 ) ) ;
#106 = CARTESIAN_POINT ( 'NONE',  ( 0.000000000000000000, 0.000000000000000000, 0.000000000000000000 ) ) ;
#107 = LINE ( 'NONE', #169, #235 ) ;
#108 = AXIS2_PLACEMENT_3D ( 'NONE', #73, #309, #17 ) ;
#109 = EDGE_CURVE ( 'NONE', #177, #183, #300, .T. ) ;
#110 = CARTESIAN_POINT ( 'NONE',  ( 0.000000000000000000, 0.000000000000000000, 0.000000000000000000 ) ) ;
#111 = AXIS2_PLACEMENT_3D ( 'NONE', #110, #220, #202 ) ;
#112 = DIRECTION ( 'NONE',  ( 3.491481338843133355E-15, -1.224646799147353207E-16, 1.000000000000000000 ) ) ;
#113 = DIRECTION ( 'NONE',  ( 3.491481338843133355E-15, -1.224646799147353207E-16, 1.000000000000000000 ) ) ;
#114 = EDGE_CURVE ( 'NONE', #117, #256, #81, .T. ) ;
#115 = CARTESIAN_POINT ( 'NONE',  ( 8.464765389773208849E-14, 4.949999999999997513, 24.00000000000000000 ) ) ;
#116 = FACE_OUTER_BOUND ( 'NONE', #155, .T. ) ;
#117 = VERTEX_POINT ( 'NONE', #163 ) ;
#118 = ORIENTED_EDGE ( 'NONE', *, *, #212, .T. ) ;
#119 = FILL_AREA_STYLE_COLOUR ( '', #313 ) ;
#120 = MANIFOLD_SOLID_BREP ( 'Corps-Déplacer/Copier1[1]', #179 ) ;
#121 = ORIENTED_EDGE ( 'NONE', *, *, #245, .T. ) ;
#122 = PRODUCT_RELATED_PRODUCT_CATEGORY ( 'part', '', ( #260 ) ) ;
#123 = FILL_AREA_STYLE_COLOUR ( '', #292 ) ;
#124 = ORIENTED_EDGE ( 'NONE', *, *, #35, .T. ) ;
#125 = APPLICATION_PROTOCOL_DEFINITION ( 'draft international standard', 'automotive_design', 1998, #29 ) ;
#126 = CARTESIAN_POINT ( 'NONE',  ( 8.403839211515627419E-14, -4.950000000000002842, 24.00000000000000000 ) ) ;
#127 =( NAMED_UNIT ( * ) PLANE_ANGLE_UNIT ( ) SI_UNIT ( $, .RADIAN. ) );
#128 = ADVANCED_FACE ( 'NONE', ( #5 ), #295, .T. ) ;
#129 = CARTESIAN_POINT ( 'NONE',  ( 4.950000000000081890, 0.000000000000000000, 23.99999999999998224 ) ) ;
#130 = DIRECTION ( 'NONE',  ( -3.491481338843133355E-15, 1.224646799147349263E-16, -1.000000000000000000 ) ) ;
#131 = AXIS2_PLACEMENT_3D ( 'NONE', #187, #30, #321 ) ;
#132 = CARTESIAN_POINT ( 'NONE',  ( 8.379555213223520053E-14, -2.939152317953647894E-15, 24.00000000000000000 ) ) ;
#133 = CARTESIAN_POINT ( 'NONE',  ( 8.379555213223520053E-14, -2.939152317953647894E-15, 24.00000000000000000 ) ) ;
#134 = ORIENTED_EDGE ( 'NONE', *, *, #218, .T. ) ;
#135 = ORIENTED_EDGE ( 'NONE', *, *, #293, .T. ) ;
#136 = CIRCLE ( 'NONE', #340, 4.950000000000000178 ) ;
#137 = CIRCLE ( 'NONE', #259, 4.950000000000000178 ) ;
#138 = ADVANCED_FACE ( 'NONE', ( #299 ), #91, .T. ) ;
#139 = CARTESIAN_POINT ( 'NONE',  ( 6.123233995736741630E-16, -4.999999999999997335, -6.123233995736784032E-16 ) ) ;
#140 = CARTESIAN_POINT ( 'NONE',  ( 8.440175229781314077E-14, 4.949999999999997513, 24.00000000000000000 ) ) ;
#141 = ORIENTED_EDGE ( 'NONE', *, *, #320, .F. ) ;
#142 = ADVANCED_BREP_SHAPE_REPRESENTATION ( '42561', ( #120, #7, #147 ), #243 ) ;
#143 =( NAMED_UNIT ( * ) PLANE_ANGLE_UNIT ( ) SI_UNIT ( $, .RADIAN. ) );
#144 = AXIS2_PLACEMENT_3D ( 'NONE', #319, #323, #99 ) ;
#145 = VERTEX_POINT ( 'NONE', #115 ) ;
#146 = CARTESIAN_POINT ( 'NONE',  ( 2.478951750578624304E-13, -8.694992273946206563E-15, 71.00000000000000000 ) ) ;
#147 = AXIS2_PLACEMENT_3D ( 'NONE', #101, #208, #154 ) ;
#148 = ORIENTED_EDGE ( 'NONE', *, *, #19, .F. ) ;
#149 = AXIS2_PLACEMENT_3D ( 'NONE', #223, #113, #334 ) ;
#150 = FILL_AREA_STYLE ('',( #123 ) ) ;
#151 =( GEOMETRIC_REPRESENTATION_CONTEXT ( 3 ) GLOBAL_UNCERTAINTY_ASSIGNED_CONTEXT ( ( #325 ) ) GLOBAL_UNIT_ASSIGNED_CONTEXT ( ( #20, #203, #310 ) ) REPRESENTATION_CONTEXT ( 'NONE', 'WORKASPACE' ) );
#152 = EDGE_CURVE ( 'NONE', #256, #177, #107, .T. ) ;
#153 = CARTESIAN_POINT ( 'NONE',  ( 4.950000000000000178, 0.000000000000000000, -1.728283262727351011E-14 ) ) ;
#154 = DIRECTION ( 'NONE',  ( 1.000000000000000000, 0.000000000000000000, 0.000000000000000000 ) ) ;
#155 = EDGE_LOOP ( 'NONE', ( #225, #148 ) ) ;
#156 =( LENGTH_UNIT ( ) NAMED_UNIT ( * ) SI_UNIT ( .MILLI., .METRE. ) );
#157 = DIRECTION ( 'NONE',  ( 0.000000000000000000, -1.000000000000000000, 0.000000000000000000 ) ) ;
#158 = CIRCLE ( 'NONE', #176, 4.949999999999997513 ) ;
#159 = FACE_OUTER_BOUND ( 'NONE', #341, .T. ) ;
#160 = DIRECTION ( 'NONE',  ( -3.491481338843133355E-15, 1.224646799147349263E-16, -1.000000000000000000 ) ) ;
#161 = AXIS2_PLACEMENT_3D ( 'NONE', #34, #307, #12 ) ;
#162 = FACE_OUTER_BOUND ( 'NONE', #42, .T. ) ;
#163 = CARTESIAN_POINT ( 'NONE',  ( 2.496409157272839907E-13, 3.999999999999980016, 72.00000000000000000 ) ) ;
#164 = DIRECTION ( 'NONE',  ( 3.491481338843133355E-15, -1.224646799147353207E-16, 1.000000000000000000 ) ) ;
#165 = ADVANCED_FACE ( 'NONE', ( #8 ), #304, .T. ) ;
#166 = PRESENTATION_LAYER_ASSIGNMENT (  '', '', ( #49 ) ) ;
#167 = AXIS2_PLACEMENT_3D ( 'NONE', #219, #306, #195 ) ;
#168 = DIRECTION ( 'NONE',  ( -3.491481338843133355E-15, 1.224646799147353207E-16, -1.000000000000000000 ) ) ;
#169 = CARTESIAN_POINT ( 'NONE',  ( 2.137915722948478427E-30, 4.999999999999997335, 6.123233995736763324E-16 ) ) ;
#170 = DIRECTION ( 'NONE',  ( 4.275831445896959482E-31, 1.000000000000000000, 1.224646799147353207E-16 ) ) ;
#171 = VECTOR ( 'NONE', #296, 1000.000000000000000 ) ;
#172 = FACE_OUTER_BOUND ( 'NONE', #250, .T. ) ;
#173 = LINE ( 'NONE', #327, #333 ) ;
#174 = ORIENTED_EDGE ( 'NONE', *, *, #280, .F. ) ;
#175 = PLANE ( 'NONE',  #108 ) ;
#176 = AXIS2_PLACEMENT_3D ( 'NONE', #273, #275, #40 ) ;
#177 = VERTEX_POINT ( 'NONE', #326 ) ;
#178 = EDGE_CURVE ( 'NONE', #227, #44, #205, .T. ) ;
#179 = CLOSED_SHELL ( 'NONE', ( #69, #92, #222, #336, #138, #165, #128, #11 ) ) ;
#180 = VECTOR ( 'NONE', #52, 1000.000000000000114 ) ;
#181 = ORIENTED_EDGE ( 'NONE', *, *, #19, .T. ) ;
#182 = APPLICATION_PROTOCOL_DEFINITION ( 'draft international standard', 'automotive_design', 1998, #285 ) ;
#183 = VERTEX_POINT ( 'NONE', #87 ) ;
#184 = DIRECTION ( 'NONE',  ( 1.000000000000000000, 0.000000000000000000, -3.491481338843133355E-15 ) ) ;
#185 = DIRECTION ( 'NONE',  ( 3.285674118869263394E-15, -0.3382550599108810063, 0.9410544694355829076 ) ) ;
#186 = DIRECTION ( 'NONE',  ( 4.275831445896958607E-31, 1.000000000000000000, 1.224646799147353207E-16 ) ) ;
#187 = CARTESIAN_POINT ( 'NONE',  ( 0.000000000000000000, 0.000000000000000000, 0.000000000000000000 ) ) ;
#188 = AXIS2_PLACEMENT_3D ( 'NONE', #50, #216, #193 ) ;
#189 = AXIS2_PLACEMENT_3D ( 'NONE', #291, #298, #267 ) ;
#190 = CARTESIAN_POINT ( 'NONE',  ( -4.949999999999915801, 6.062001655779397525E-16, 24.00000000000001776 ) ) ;
#191 = CIRCLE ( 'NONE', #83, 4.950000000000000178 ) ;
#192 = PRODUCT_DEFINITION ( 'UNKNOWN', '', #198, #297 ) ;
#193 = DIRECTION ( 'NONE',  ( 0.000000000000000000, -1.000000000000000000, 0.000000000000000000 ) ) ;
#194 = MECHANICAL_DESIGN_GEOMETRIC_PRESENTATION_REPRESENTATION (  '', ( #317 ), #68 ) ;
#195 = DIRECTION ( 'NONE',  ( 0.000000000000000000, -1.000000000000000000, 0.000000000000000000 ) ) ;
#196 = ORIENTED_EDGE ( 'NONE', *, *, #80, .F. ) ;
#197 = EDGE_CURVE ( 'NONE', #145, #177, #199, .T. ) ;
#198 = PRODUCT_DEFINITION_FORMATION_WITH_SPECIFIED_SOURCE ( 'ANY', '', #260, .NOT_KNOWN. ) ;
#199 = LINE ( 'NONE', #140, #248 ) ;
#200 = ORIENTED_EDGE ( 'NONE', *, *, #245, .F. ) ;
#201 = CARTESIAN_POINT ( 'NONE',  ( 8.379555213223520053E-14, 0.000000000000000000, 24.00000000000000000 ) ) ;
#202 = DIRECTION ( 'NONE',  ( 4.275831445896959482E-31, 1.000000000000000000, 1.224646799147353207E-16 ) ) ;
#203 =( NAMED_UNIT ( * ) PLANE_ANGLE_UNIT ( ) SI_UNIT ( $, .RADIAN. ) );
#204 = ORIENTED_EDGE ( 'NONE', *, *, #114, .T. ) ;
#205 = CIRCLE ( 'NONE', #161, 4.949999999999997513 ) ;
#206 = CARTESIAN_POINT ( 'NONE',  ( -4.950000000000000178, 6.062001655779450773E-16, 1.728283262727351642E-14 ) ) ;
#207 = ORIENTED_EDGE ( 'NONE', *, *, #234, .F. ) ;
#208 = DIRECTION ( 'NONE',  ( 0.000000000000000000, 0.000000000000000000, 1.000000000000000000 ) ) ;
#209 = ORIENTED_EDGE ( 'NONE', *, *, #197, .F. ) ;
#210 = CONICAL_SURFACE ( 'NONE', #241, 4.999999999999997335, 0.7853981633974522758 ) ;
#211 = SURFACE_STYLE_FILL_AREA ( #324 ) ;
#212 = EDGE_CURVE ( 'NONE', #9, #44, #64, .T. ) ;
#213 = DIRECTION ( 'NONE',  ( 3.491481338843133355E-15, -0.000000000000000000, 1.000000000000000000 ) ) ;
#214 = PRESENTATION_LAYER_ASSIGNMENT (  '', '', ( #97 ) ) ;
#215 = CARTESIAN_POINT ( 'NONE',  ( 8.379555213223520053E-14, 4.949999999999997513, 24.00000000000000000 ) ) ;
#216 = DIRECTION ( 'NONE',  ( 3.491481338843133355E-15, -1.224646799147353207E-16, 1.000000000000000000 ) ) ;
#217 = AXIS2_PLACEMENT_3D ( 'NONE', #269, #168, #170 ) ;
#218 = EDGE_CURVE ( 'NONE', #145, #55, #137, .T. ) ;
#219 = CARTESIAN_POINT ( 'NONE',  ( 8.379555213223520053E-14, -2.939152317953647894E-15, 24.00000000000000000 ) ) ;
#220 = DIRECTION ( 'NONE',  ( -3.491481338843133355E-15, 1.224646799147353207E-16, -1.000000000000000000 ) ) ;
#221 = UNCERTAINTY_MEASURE_WITH_UNIT (LENGTH_MEASURE( 1.000000000000000082E-05 ), #156, 'distance_accuracy_value', 'NONE');
#222 = ADVANCED_FACE ( 'NONE', ( #172 ), #54, .T. ) ;
#223 = CARTESIAN_POINT ( 'NONE',  ( 2.513866563967056016E-13, -8.817456953860941711E-15, 72.00000000000000000 ) ) ;
#224 =( NAMED_UNIT ( * ) SI_UNIT ( $, .STERADIAN. ) SOLID_ANGLE_UNIT ( ) );
#225 = ORIENTED_EDGE ( 'NONE', *, *, #35, .F. ) ;
#226 = CARTESIAN_POINT ( 'NONE',  ( 1.660882035779698891E-13, 4.999999999999988454, 71.00000000000000000 ) ) ;
#227 = VERTEX_POINT ( 'NONE', #331 ) ;
#228 = CIRCLE ( 'NONE', #188, 3.999999999999988898 ) ;
#229 = AXIS2_PLACEMENT_3D ( 'NONE', #343, #213, #105 ) ;
#230 = EDGE_LOOP ( 'NONE', ( #263, #181, #118, #66 ) ) ;
#231 = SURFACE_SIDE_STYLE ('',( #96 ) ) ;
#232 = FILL_AREA_STYLE ('',( #119 ) ) ;
#233 = SHAPE_DEFINITION_REPRESENTATION ( #252, #142 ) ;
#234 = EDGE_CURVE ( 'NONE', #44, #227, #158, .T. ) ;
#235 = VECTOR ( 'NONE', #14, 1000.000000000000000 ) ;
#236 = DIRECTION ( 'NONE',  ( -1.598721155460225734E-14, -1.000000000000000000, 0.000000000000000000 ) ) ;
#237 =( NAMED_UNIT ( * ) SI_UNIT ( $, .STERADIAN. ) SOLID_ANGLE_UNIT ( ) );
#238 =( LENGTH_UNIT ( ) NAMED_UNIT ( * ) SI_UNIT ( .MILLI., .METRE. ) );
#239 = DIRECTION ( 'NONE',  ( 1.687538997430237310E-14, -1.000000000000000000, 0.000000000000000000 ) ) ;
#240 = FILL_AREA_STYLE_COLOUR ( '', #328 ) ;
#241 = AXIS2_PLACEMENT_3D ( 'NONE', #146, #22, #98 ) ;
#242 = CARTESIAN_POINT ( 'NONE',  ( 2.501920067869003115E-13, -3.999999999999997335, 72.00000000000000000 ) ) ;
#243 =( GEOMETRIC_REPRESENTATION_CONTEXT ( 3 ) GLOBAL_UNCERTAINTY_ASSIGNED_CONTEXT ( ( #6 ) ) GLOBAL_UNIT_ASSIGNED_CONTEXT ( ( #294, #143, #237 ) ) REPRESENTATION_CONTEXT ( 'NONE', 'WORKASPACE' ) );
#244 = CYLINDRICAL_SURFACE ( 'NONE', #104, 4.949999999999999289 ) ;
#245 = EDGE_CURVE ( 'NONE', #15, #183, #251, .T. ) ;
#246 = DIRECTION ( 'NONE',  ( -3.491481338843133355E-15, 1.224646799147353207E-16, -1.000000000000000000 ) ) ;
#247 = EDGE_LOOP ( 'NONE', ( #38, #316 ) ) ;
#248 = VECTOR ( 'NONE', #84, 999.9999999999998863 ) ;
#249 = DIRECTION ( 'NONE',  ( 1.000000000000000000, 0.000000000000000000, -3.504491870660216954E-15 ) ) ;
#250 = EDGE_LOOP ( 'NONE', ( #43, #121, #24, #283 ) ) ;
#251 = LINE ( 'NONE', #139, #338 ) ;
#252 = PRODUCT_DEFINITION_SHAPE ( 'NONE', 'NONE',  #192 ) ;
#253 = DIRECTION ( 'NONE',  ( 0.000000000000000000, 1.000000000000000000, 0.000000000000000000 ) ) ;
#254 = EDGE_LOOP ( 'NONE', ( #124, #70, #207, #270 ) ) ;
#255 = CONICAL_SURFACE ( 'NONE', #95, 4.950000000000000178, 0.3450620389298179047 ) ;
#256 = VERTEX_POINT ( 'NONE', #226 ) ;
#257 = ADVANCED_FACE ( 'NONE', ( #88 ), #244, .T. ) ;
#258 = ORIENTED_EDGE ( 'NONE', *, *, #74, .F. ) ;
#259 = AXIS2_PLACEMENT_3D ( 'NONE', #133, #62, #301 ) ;
#260 = PRODUCT ( '42561', '42561', '', ( #264 ) ) ;
#261 = ORIENTED_EDGE ( 'NONE', *, *, #114, .F. ) ;
#262 = SURFACE_STYLE_FILL_AREA ( #150 ) ;
#263 = ORIENTED_EDGE ( 'NONE', *, *, #31, .F. ) ;
#264 = PRODUCT_CONTEXT ( 'NONE', #285, 'mechanical' ) ;
#265 = ORIENTED_EDGE ( 'NONE', *, *, #197, .T. ) ;
#266 = SURFACE_STYLE_USAGE ( .BOTH. , #318 ) ;
#267 = DIRECTION ( 'NONE',  ( -1.000000000000000000, 0.000000000000000000, 3.491481338843133355E-15 ) ) ;
#268 = PLANE ( 'NONE',  #189 ) ;
#269 = CARTESIAN_POINT ( 'NONE',  ( 0.000000000000000000, 0.000000000000000000, 0.000000000000000000 ) ) ;
#270 = ORIENTED_EDGE ( 'NONE', *, *, #212, .F. ) ;
#271 = DIRECTION ( 'NONE',  ( -3.491481338843133355E-15, 1.224646799147353207E-16, -1.000000000000000000 ) ) ;
#272 = VERTEX_POINT ( 'NONE', #242 ) ;
#273 = CARTESIAN_POINT ( 'NONE',  ( 8.379555213223520053E-14, 0.000000000000000000, 24.00000000000000000 ) ) ;
#274 = AXIS2_PLACEMENT_3D ( 'NONE', #82, #130, #100 ) ;
#275 = DIRECTION ( 'NONE',  ( 3.491481338843133355E-15, -0.000000000000000000, 1.000000000000000000 ) ) ;
#276 = VECTOR ( 'NONE', #185, 1000.000000000000000 ) ;
#277 = DIRECTION ( 'NONE',  ( 3.491481338843133355E-15, -0.000000000000000000, 1.000000000000000000 ) ) ;
#278 = ORIENTED_EDGE ( 'NONE', *, *, #305, .F. ) ;
#279 = FACE_OUTER_BOUND ( 'NONE', #282, .T. ) ;
#280 = EDGE_CURVE ( 'NONE', #272, #117, #60, .T. ) ;
#281 = AXIS2_PLACEMENT_3D ( 'NONE', #16, #112, #329 ) ;
#282 = EDGE_LOOP ( 'NONE', ( #41, #37, #204, #196 ) ) ;
#283 = ORIENTED_EDGE ( 'NONE', *, *, #152, .F. ) ;
#284 = LINE ( 'NONE', #65, #276 ) ;
#285 = APPLICATION_CONTEXT ( 'automotive_design' ) ;
#286 = ORIENTED_EDGE ( 'NONE', *, *, #178, .T. ) ;
#287 = PLANE ( 'NONE',  #308 ) ;
#288 = EDGE_CURVE ( 'NONE', #272, #15, #173, .T. ) ;
#289 = EDGE_LOOP ( 'NONE', ( #209, #278, #89, #135 ) ) ;
#290 = SURFACE_SIDE_STYLE ('',( #262 ) ) ;
#291 = CARTESIAN_POINT ( 'NONE',  ( 8.379555213223520053E-14, 4.949999999999997513, 24.00000000000000000 ) ) ;
#292 = COLOUR_RGB ( '',0.8980392156862745390, 0.9176470588235293713, 0.9294117647058823817 ) ;
#293 = EDGE_CURVE ( 'NONE', #183, #177, #77, .T. ) ;
#294 =( LENGTH_UNIT ( ) NAMED_UNIT ( * ) SI_UNIT ( .MILLI., .METRE. ) );
#295 = CONICAL_SURFACE ( 'NONE', #167, 4.950000000000000178, 0.3450620389298179047 ) ;
#296 = DIRECTION ( 'NONE',  ( 3.491481338843133355E-15, -0.000000000000000000, 1.000000000000000000 ) ) ;
#297 = PRODUCT_DEFINITION_CONTEXT ( 'detailed design', #29, 'design' ) ;
#298 = DIRECTION ( 'NONE',  ( -3.491481338843133355E-15, 0.000000000000000000, -1.000000000000000000 ) ) ;
#299 = FACE_OUTER_BOUND ( 'NONE', #247, .T. ) ;
#300 = CIRCLE ( 'NONE', #144, 4.999999999999994671 ) ;
#301 = DIRECTION ( 'NONE',  ( 0.000000000000000000, 1.000000000000000000, 0.000000000000000000 ) ) ;
#302 = ORIENTED_EDGE ( 'NONE', *, *, #109, .T. ) ;
#303 =( GEOMETRIC_REPRESENTATION_CONTEXT ( 3 ) GLOBAL_UNCERTAINTY_ASSIGNED_CONTEXT ( ( #221 ) ) GLOBAL_UNIT_ASSIGNED_CONTEXT ( ( #156, #127, #342 ) ) REPRESENTATION_CONTEXT ( 'NONE', 'WORKASPACE' ) );
#304 = CYLINDRICAL_SURFACE ( 'NONE', #111, 4.999999999999997335 ) ;
#305 = EDGE_CURVE ( 'NONE', #55, #145, #191, .T. ) ;
#306 = DIRECTION ( 'NONE',  ( 3.491481338843133355E-15, -1.224646799147353207E-16, 1.000000000000000000 ) ) ;
#307 = DIRECTION ( 'NONE',  ( 3.491481338843133355E-15, -0.000000000000000000, 1.000000000000000000 ) ) ;
#308 = AXIS2_PLACEMENT_3D ( 'NONE', #215, #71, #186 ) ;
#309 = DIRECTION ( 'NONE',  ( 3.491481338843133355E-15, -0.000000000000000000, 1.000000000000000000 ) ) ;
#310 =( NAMED_UNIT ( * ) SI_UNIT ( $, .STERADIAN. ) SOLID_ANGLE_UNIT ( ) );
#311 = SURFACE_STYLE_USAGE ( .BOTH. , #231 ) ;
#312 = ADVANCED_FACE ( 'NONE', ( #116 ), #175, .F. ) ;
#313 = COLOUR_RGB ( '',0.8980392156862745390, 0.9176470588235293713, 0.9294117647058823817 ) ;
#314 = AXIS2_PLACEMENT_3D ( 'NONE', #3, #160, #236 ) ;
#315 = CARTESIAN_POINT ( 'NONE',  ( 1.667005269775435144E-13, -5.000000000000006217, 71.00000000000000000 ) ) ;
#316 = ORIENTED_EDGE ( 'NONE', *, *, #280, .T. ) ;
#317 = STYLED_ITEM ( 'NONE', ( #25 ), #120 ) ;
#318 = SURFACE_SIDE_STYLE ('',( #211 ) ) ;
#319 = CARTESIAN_POINT ( 'NONE',  ( 8.428123209807733522E-14, -2.956187677958626025E-15, 24.13910427085457755 ) ) ;
#320 = EDGE_CURVE ( 'NONE', #55, #183, #284, .T. ) ;
#321 = DIRECTION ( 'NONE',  ( 1.000000000000000000, 0.000000000000000000, -3.491481338843133355E-15 ) ) ;
#322 = AXIS2_PLACEMENT_3D ( 'NONE', #28, #33, #239 ) ;
#323 = DIRECTION ( 'NONE',  ( -3.491481338843133355E-15, 1.224646799147353207E-16, -1.000000000000000000 ) ) ;
#324 = FILL_AREA_STYLE ('',( #240 ) ) ;
#325 = UNCERTAINTY_MEASURE_WITH_UNIT (LENGTH_MEASURE( 1.000000000000000082E-05 ), #20, 'distance_accuracy_value', 'NONE');
#326 = CARTESIAN_POINT ( 'NONE',  ( 8.428123209807733522E-14, 4.999999999999992006, 24.13910427085457755 ) ) ;
#327 = CARTESIAN_POINT ( 'NONE',  ( 2.485074984574361313E-13, -5.000000000000006217, 71.00000000000000000 ) ) ;
#328 = COLOUR_RGB ( '',0.8980392156862745390, 0.9176470588235293713, 0.9294117647058823817 ) ;
#329 = DIRECTION ( 'NONE',  ( -4.275831445896958607E-31, -1.000000000000000000, -1.224646799147353207E-16 ) ) ;
#330 = EDGE_LOOP ( 'NONE', ( #72, #286 ) ) ;
#331 = CARTESIAN_POINT ( 'NONE',  ( -4.949999999999914024, 6.062001655779396539E-16, 24.00000000000001776 ) ) ;
#332 = ORIENTED_EDGE ( 'NONE', *, *, #293, .F. ) ;
#333 = VECTOR ( 'NONE', #86, 1000.000000000000114 ) ;
#334 = DIRECTION ( 'NONE',  ( 0.000000000000000000, -1.000000000000000000, 0.000000000000000000 ) ) ;
#335 = CIRCLE ( 'NONE', #322, 4.999999999999997335 ) ;
#336 = ADVANCED_FACE ( 'NONE', ( #159 ), #287, .T. ) ;
#337 = EDGE_LOOP ( 'NONE', ( #174, #23, #258, #261 ) ) ;
#338 = VECTOR ( 'NONE', #246, 1000.000000000000000 ) ;
#339 = ORIENTED_EDGE ( 'NONE', *, *, #152, .T. ) ;
#340 = AXIS2_PLACEMENT_3D ( 'NONE', #106, #102, #184 ) ;
#341 = EDGE_LOOP ( 'NONE', ( #18, #134 ) ) ;
#342 =( NAMED_UNIT ( * ) SI_UNIT ( $, .STERADIAN. ) SOLID_ANGLE_UNIT ( ) );
#343 = CARTESIAN_POINT ( 'NONE',  ( 8.379555213223520053E-14, 0.000000000000000000, 24.00000000000000000 ) ) ;
ENDSEC;
END-ISO-10303-21;
