ISO-10303-21;
HEADER;
FILE_DESCRIPTION (( 'STEP AP214' ),
    '1' );
FILE_NAME ('42554.step',
    '2024-04-04T09:32:58',
    ( '' ),
    ( '' ),
    'SwSTEP 2.0',
    'SolidWorks 2022',
    '' );
FILE_SCHEMA (( 'AUTOMOTIVE_DESIGN' ));
ENDSEC;

DATA;
#1 = CIRCLE ( 'NONE', #78, 3.950000000000000178 ) ;
#2 = ORIENTED_EDGE ( 'NONE', *, *, #98, .T. ) ;
#3 = AXIS2_PLACEMENT_3D ( 'NONE', #99, #233, #158 ) ;
#4 = DIRECTION ( 'NONE',  ( -3.491481338843133355E-15, 1.224646799147353207E-16, -1.000000000000000000 ) ) ;
#5 = APPLICATION_PROTOCOL_DEFINITION ( 'draft international standard', 'automotive_design', 1998, #338 ) ;
#6 = ORIENTED_EDGE ( 'NONE', *, *, #38, .F. ) ;
#7 =( GEOMETRIC_REPRESENTATION_CONTEXT ( 3 ) GLOBAL_UNCERTAINTY_ASSIGNED_CONTEXT ( ( #110 ) ) GLOBAL_UNIT_ASSIGNED_CONTEXT ( ( #162, #292, #261 ) ) REPRESENTATION_CONTEXT ( 'NONE', 'WORKASPACE' ) );
#8 = CARTESIAN_POINT ( 'NONE',  ( 2.171701392760428568E-13, -7.617303090696535366E-15, 62.19999999999998863 ) ) ;
#9 = DIRECTION ( 'NONE',  ( -4.275831445896958607E-31, -1.000000000000000000, -1.224646799147353207E-16 ) ) ;
#10 = ORIENTED_EDGE ( 'NONE', *, *, #293, .T. ) ;
#11 = SURFACE_STYLE_FILL_AREA ( #164 ) ;
#12 = AXIS2_PLACEMENT_3D ( 'NONE', #321, #89, #193 ) ;
#13 = ORIENTED_EDGE ( 'NONE', *, *, #111, .F. ) ;
#14 = PLANE ( 'NONE',  #175 ) ;
#15 =( LENGTH_UNIT ( ) NAMED_UNIT ( * ) SI_UNIT ( .MILLI., .METRE. ) );
#16 = EDGE_CURVE ( 'NONE', #118, #142, #139, .T. ) ;
#17 = DIRECTION ( 'NONE',  ( -3.491481338843133355E-15, 1.224646799147353207E-16, -1.000000000000000000 ) ) ;
#18 = DIRECTION ( 'NONE',  ( 0.000000000000000000, -1.000000000000000000, 0.000000000000000000 ) ) ;
#19 = PLANE ( 'NONE',  #155 ) ;
#20 = DIRECTION ( 'NONE',  ( 3.491481338843133355E-15, -1.224646799147353207E-16, 1.000000000000000000 ) ) ;
#21 = FACE_OUTER_BOUND ( 'NONE', #320, .T. ) ;
#22 = EDGE_CURVE ( 'NONE', #187, #118, #52, .T. ) ;
#23 = ORIENTED_EDGE ( 'NONE', *, *, #173, .F. ) ;
#24 = CARTESIAN_POINT ( 'NONE',  ( 7.031530674270481442E-14, -2.466328958299685432E-15, 20.13910427085458110 ) ) ;
#25 = DIRECTION ( 'NONE',  ( 0.000000000000000000, 1.000000000000000000, 0.000000000000000000 ) ) ;
#26 = EDGE_LOOP ( 'NONE', ( #235, #137, #283, #265 ) ) ;
#27 = ADVANCED_FACE ( 'NONE', ( #63 ), #41, .T. ) ;
#28 = EDGE_LOOP ( 'NONE', ( #286, #165, #163, #287 ) ) ;
#29 = STYLED_ITEM ( 'NONE', ( #69 ), #144 ) ;
#30 = SURFACE_SIDE_STYLE ('',( #251 ) ) ;
#31 = VECTOR ( 'NONE', #230, 1000.000000000000000 ) ;
#32 = ORIENTED_EDGE ( 'NONE', *, *, #293, .F. ) ;
#33 = CARTESIAN_POINT ( 'NONE',  ( 7.055926386244481992E-14, 3.949999999999997957, 20.00000000000000000 ) ) ;
#34 = ORIENTED_EDGE ( 'NONE', *, *, #343, .F. ) ;
#35 = DIRECTION ( 'NONE',  ( 3.491481338843133355E-15, -0.000000000000000000, 1.000000000000000000 ) ) ;
#36 = ORIENTED_EDGE ( 'NONE', *, *, #206, .F. ) ;
#37 = PLANE ( 'NONE',  #160 ) ;
#38 = EDGE_CURVE ( 'NONE', #142, #180, #237, .T. ) ;
#39 =( NAMED_UNIT ( * ) SI_UNIT ( $, .STERADIAN. ) SOLID_ANGLE_UNIT ( ) );
#40 = CARTESIAN_POINT ( 'NONE',  ( 7.031530674270481442E-14, 3.999999999999994671, 20.13910427085458110 ) ) ;
#41 = CONICAL_SURFACE ( 'NONE', #106, 4.000000000000000000, 0.7853981633974467247 ) ;
#42 = CARTESIAN_POINT ( 'NONE',  ( 6.982962677686266711E-14, -2.449293598294706513E-15, 20.00000000000000000 ) ) ;
#43 = FACE_OUTER_BOUND ( 'NONE', #221, .T. ) ;
#44 = AXIS2_PLACEMENT_3D ( 'NONE', #304, #84, #108 ) ;
#45 = DIRECTION ( 'NONE',  ( 1.000000000000000000, 0.000000000000000000, -3.491481338843133355E-15 ) ) ;
#46 = ADVANCED_FACE ( 'NONE', ( #222 ), #14, .F. ) ;
#47 = CARTESIAN_POINT ( 'NONE',  ( -3.949999999999928235, 4.837354856632043085E-16, 20.00000000000001421 ) ) ;
#48 = ORIENTED_EDGE ( 'NONE', *, *, #98, .F. ) ;
#49 = VECTOR ( 'NONE', #337, 1000.000000000000114 ) ;
#50 = ORIENTED_EDGE ( 'NONE', *, *, #22, .F. ) ;
#51 = DIRECTION ( 'NONE',  ( 1.000000000000000000, 0.000000000000000000, 0.000000000000000000 ) ) ;
#52 = CIRCLE ( 'NONE', #306, 3.199999999999993516 ) ;
#53 = CIRCLE ( 'NONE', #12, 4.000000000000000000 ) ;
#54 = PRODUCT_RELATED_PRODUCT_CATEGORY ( 'part', '', ( #177 ) ) ;
#55 = UNCERTAINTY_MEASURE_WITH_UNIT (LENGTH_MEASURE( 1.000000000000000082E-05 ), #218, 'distance_accuracy_value', 'NONE');
#56 = EDGE_LOOP ( 'NONE', ( #107, #48, #83, #299 ) ) ;
#57 = DIRECTION ( 'NONE',  ( 0.000000000000000000, 1.000000000000000000, 0.000000000000000000 ) ) ;
#58 = EDGE_CURVE ( 'NONE', #118, #187, #152, .T. ) ;
#59 = CARTESIAN_POINT ( 'NONE',  ( 2.171701392760428568E-13, 3.999999999999992450, 62.19999999999998863 ) ) ;
#60 = CARTESIAN_POINT ( 'NONE',  ( 1.437427230093738356E-13, 3.999999999999992450, 62.19999999999998863 ) ) ;
#61 = ORIENTED_EDGE ( 'NONE', *, *, #171, .T. ) ;
#62 = AXIS2_PLACEMENT_3D ( 'NONE', #174, #101, #45 ) ;
#63 = FACE_OUTER_BOUND ( 'NONE', #28, .T. ) ;
#64 = CARTESIAN_POINT ( 'NONE',  ( 2.199633243471174140E-13, -7.715274834628325378E-15, 63.00000000000000000 ) ) ;
#65 = ORIENTED_EDGE ( 'NONE', *, *, #318, .F. ) ;
#66 = ADVANCED_FACE ( 'NONE', ( #120 ), #317, .T. ) ;
#67 = EDGE_CURVE ( 'NONE', #142, #289, #202, .T. ) ;
#68 = PLANE ( 'NONE',  #277 ) ;
#69 = PRESENTATION_STYLE_ASSIGNMENT (( #298 ) ) ;
#70 = CYLINDRICAL_SURFACE ( 'NONE', #3, 3.949999999999998845 ) ;
#71 = CARTESIAN_POINT ( 'NONE',  ( 1.442325817290327257E-13, -4.000000000000000000, 20.13910427085458110 ) ) ;
#72 = DIRECTION ( 'NONE',  ( -3.491481338843133355E-15, 1.224646799147353207E-16, -1.000000000000000000 ) ) ;
#73 = DIRECTION ( 'NONE',  ( -3.491481338843133355E-15, 1.224646799147351975E-16, -1.000000000000000000 ) ) ;
#74 = AXIS2_PLACEMENT_3D ( 'NONE', #225, #103, #204 ) ;
#75 = CARTESIAN_POINT ( 'NONE',  ( 2.171701392760428568E-13, -7.617303090696535366E-15, 62.19999999999998863 ) ) ;
#76 = ORIENTED_EDGE ( 'NONE', *, *, #330, .T. ) ;
#77 = FILL_AREA_STYLE ('',( #87 ) ) ;
#78 = AXIS2_PLACEMENT_3D ( 'NONE', #271, #17, #201 ) ;
#79 = EDGE_LOOP ( 'NONE', ( #36, #146, #315, #65 ) ) ;
#80 = CONICAL_SURFACE ( 'NONE', #269, 3.950000000000000178, 0.3450620389298264534 ) ;
#81 = ORIENTED_EDGE ( 'NONE', *, *, #206, .T. ) ;
#82 = SURFACE_STYLE_FILL_AREA ( #77 ) ;
#83 = ORIENTED_EDGE ( 'NONE', *, *, #318, .T. ) ;
#84 = DIRECTION ( 'NONE',  ( -3.491481338843133355E-15, 1.224646799147353207E-16, -1.000000000000000000 ) ) ;
#85 = CARTESIAN_POINT ( 'NONE',  ( 0.000000000000000000, 0.000000000000000000, 0.000000000000000000 ) ) ;
#86 = ADVANCED_FACE ( 'NONE', ( #95 ), #68, .T. ) ;
#87 = FILL_AREA_STYLE_COLOUR ( '', #258 ) ;
#88 = ORIENTED_EDGE ( 'NONE', *, *, #330, .F. ) ;
#89 = DIRECTION ( 'NONE',  ( -3.491481338843133355E-15, 1.224646799147351975E-16, -1.000000000000000000 ) ) ;
#90 = ORIENTED_EDGE ( 'NONE', *, *, #151, .T. ) ;
#91 =( NAMED_UNIT ( * ) PLANE_ANGLE_UNIT ( ) SI_UNIT ( $, .RADIAN. ) );
#92 = DIRECTION ( 'NONE',  ( -2.468850131082269288E-15, 0.7071067811865465735, -0.7071067811865485719 ) ) ;
#93 = DIRECTION ( 'NONE',  ( -1.000000000000000000, 0.000000000000000000, 3.491481338843133355E-15 ) ) ;
#94 =( GEOMETRIC_REPRESENTATION_CONTEXT ( 3 ) GLOBAL_UNCERTAINTY_ASSIGNED_CONTEXT ( ( #135 ) ) GLOBAL_UNIT_ASSIGNED_CONTEXT ( ( #319, #183, #134 ) ) REPRESENTATION_CONTEXT ( 'NONE', 'WORKASPACE' ) );
#95 = FACE_OUTER_BOUND ( 'NONE', #260, .T. ) ;
#96 = APPLICATION_CONTEXT ( 'automotive_design' ) ;
#97 = SURFACE_SIDE_STYLE ('',( #11 ) ) ;
#98 = EDGE_CURVE ( 'NONE', #294, #116, #1, .T. ) ;
#99 = CARTESIAN_POINT ( 'NONE',  ( 6.982962677686266711E-14, 0.000000000000000000, 20.00000000000000000 ) ) ;
#100 = CARTESIAN_POINT ( 'NONE',  ( 6.982962677686266711E-14, 0.000000000000000000, 20.00000000000000000 ) ) ;
#101 = DIRECTION ( 'NONE',  ( 3.491481338843133355E-15, -0.000000000000000000, 1.000000000000000000 ) ) ;
#102 =( GEOMETRIC_REPRESENTATION_CONTEXT ( 3 ) GLOBAL_UNCERTAINTY_ASSIGNED_CONTEXT ( ( #262 ) ) GLOBAL_UNIT_ASSIGNED_CONTEXT ( ( #15, #247, #39 ) ) REPRESENTATION_CONTEXT ( 'NONE', 'WORKASPACE' ) );
#103 = DIRECTION ( 'NONE',  ( 3.491481338843133355E-15, -0.000000000000000000, 1.000000000000000000 ) ) ;
#104 = DIRECTION ( 'NONE',  ( -3.491481338843133355E-15, 1.224646799147353207E-16, -1.000000000000000000 ) ) ;
#105 = PRESENTATION_STYLE_ASSIGNMENT (( #188 ) ) ;
#106 = AXIS2_PLACEMENT_3D ( 'NONE', #168, #270, #57 ) ;
#107 = ORIENTED_EDGE ( 'NONE', *, *, #182, .F. ) ;
#108 = DIRECTION ( 'NONE',  ( 4.275831445896958607E-31, 1.000000000000000000, 1.224646799147353207E-16 ) ) ;
#109 = CIRCLE ( 'NONE', #62, 3.950000000000000178 ) ;
#110 = UNCERTAINTY_MEASURE_WITH_UNIT (LENGTH_MEASURE( 1.000000000000000082E-05 ), #162, 'distance_accuracy_value', 'NONE');
#111 = EDGE_CURVE ( 'NONE', #114, #192, #115, .T. ) ;
#112 = PRODUCT_DEFINITION_FORMATION_WITH_SPECIFIED_SOURCE ( 'ANY', '', #177, .NOT_KNOWN. ) ;
#113 = ORIENTED_EDGE ( 'NONE', *, *, #231, .T. ) ;
#114 = VERTEX_POINT ( 'NONE', #333 ) ;
#115 = LINE ( 'NONE', #169, #138 ) ;
#116 = VERTEX_POINT ( 'NONE', #33 ) ;
#117 = CIRCLE ( 'NONE', #307, 3.950000000000000178 ) ;
#118 = VERTEX_POINT ( 'NONE', #172 ) ;
#119 = DIRECTION ( 'NONE',  ( 1.000000000000000000, 0.000000000000000000, -3.491481338843133355E-15 ) ) ;
#120 = FACE_OUTER_BOUND ( 'NONE', #26, .T. ) ;
#121 = DIRECTION ( 'NONE',  ( 3.491481338843133355E-15, -0.000000000000000000, 1.000000000000000000 ) ) ;
#122 = CARTESIAN_POINT ( 'NONE',  ( 6.982962677686266711E-14, -3.950000000000002842, 20.00000000000000000 ) ) ;
#123 = STYLED_ITEM ( 'NONE', ( #150 ), #143 ) ;
#124 = DIRECTION ( 'NONE',  ( 1.000000000000000000, 0.000000000000000000, -3.513364001978345245E-15 ) ) ;
#125 = CIRCLE ( 'NONE', #185, 3.949999999999997957 ) ;
#126 = CIRCLE ( 'NONE', #314, 3.950000000000000178 ) ;
#127 = CYLINDRICAL_SURFACE ( 'NONE', #335, 3.949999999999998845 ) ;
#128 = CARTESIAN_POINT ( 'NONE',  ( 2.176599979957017974E-13, -4.000000000000007994, 62.19999999999998863 ) ) ;
#129 = DIRECTION ( 'NONE',  ( 3.491481338843133355E-15, -0.000000000000000000, 1.000000000000000000 ) ) ;
#130 = PRODUCT_DEFINITION_SHAPE ( 'NONE', 'NONE',  #145 ) ;
#131 = PRESENTATION_LAYER_ASSIGNMENT (  '', '', ( #232 ) ) ;
#132 = CARTESIAN_POINT ( 'NONE',  ( 0.000000000000000000, 0.000000000000000000, 0.000000000000000000 ) ) ;
#133 = AXIS2_PLACEMENT_3D ( 'NONE', #85, #161, #331 ) ;
#134 =( NAMED_UNIT ( * ) SI_UNIT ( $, .STERADIAN. ) SOLID_ANGLE_UNIT ( ) );
#135 = UNCERTAINTY_MEASURE_WITH_UNIT (LENGTH_MEASURE( 1.000000000000000082E-05 ), #319, 'distance_accuracy_value', 'NONE');
#136 = AXIS2_PLACEMENT_3D ( 'NONE', #308, #72, #341 ) ;
#137 = ORIENTED_EDGE ( 'NONE', *, *, #173, .T. ) ;
#138 = VECTOR ( 'NONE', #35, 1000.000000000000000 ) ;
#139 = LINE ( 'NONE', #59, #189 ) ;
#140 = CONICAL_SURFACE ( 'NONE', #245, 3.950000000000000178, 0.3450620389298264534 ) ;
#141 = CARTESIAN_POINT ( 'NONE',  ( 4.898587196589396065E-16, -4.000000000000000000, -4.898587196589429592E-16 ) ) ;
#142 = VERTEX_POINT ( 'NONE', #60 ) ;
#143 = MANIFOLD_SOLID_BREP ( 'Corps-Déplacer/Copier1[2]', #339 ) ;
#144 = MANIFOLD_SOLID_BREP ( 'Corps-Déplacer/Copier1[1]', #207 ) ;
#145 = PRODUCT_DEFINITION ( 'UNKNOWN', '', #112, #238 ) ;
#146 = ORIENTED_EDGE ( 'NONE', *, *, #182, .T. ) ;
#147 = MECHANICAL_DESIGN_GEOMETRIC_PRESENTATION_REPRESENTATION (  '', ( #29 ), #102 ) ;
#148 = DIRECTION ( 'NONE',  ( 3.491481338843133355E-15, -1.224646799147353207E-16, 1.000000000000000000 ) ) ;
#149 = DIRECTION ( 'NONE',  ( 3.491481338843133355E-15, -1.224646799147353207E-16, 1.000000000000000000 ) ) ;
#150 = PRESENTATION_STYLE_ASSIGNMENT (( #249 ) ) ;
#151 = EDGE_CURVE ( 'NONE', #114, #250, #117, .T. ) ;
#152 = CIRCLE ( 'NONE', #324, 3.199999999999993516 ) ;
#153 = CARTESIAN_POINT ( 'NONE',  ( 7.031336226252587220E-14, 3.949999999999997957, 20.00000000000000000 ) ) ;
#154 = DIRECTION ( 'NONE',  ( 4.275831445896958607E-31, 1.000000000000000000, 1.224646799147353207E-16 ) ) ;
#155 = AXIS2_PLACEMENT_3D ( 'NONE', #253, #342, #154 ) ;
#156 = FACE_OUTER_BOUND ( 'NONE', #56, .T. ) ;
#157 = CARTESIAN_POINT ( 'NONE',  ( -3.950000000000000178, 4.837354856632088445E-16, 1.379135128843037833E-14 ) ) ;
#158 = DIRECTION ( 'NONE',  ( 1.000000000000000000, 0.000000000000000000, -3.513364001978344456E-15 ) ) ;
#159 = ADVANCED_FACE ( 'NONE', ( #224 ), #37, .F. ) ;
#160 = AXIS2_PLACEMENT_3D ( 'NONE', #203, #303, #252 ) ;
#161 = DIRECTION ( 'NONE',  ( -3.491481338843133355E-15, 1.224646799147353207E-16, -1.000000000000000000 ) ) ;
#162 =( LENGTH_UNIT ( ) NAMED_UNIT ( * ) SI_UNIT ( .MILLI., .METRE. ) );
#163 = ORIENTED_EDGE ( 'NONE', *, *, #16, .T. ) ;
#164 = FILL_AREA_STYLE ('',( #166 ) ) ;
#165 = ORIENTED_EDGE ( 'NONE', *, *, #58, .F. ) ;
#166 = FILL_AREA_STYLE_COLOUR ( '', #226 ) ;
#167 = VECTOR ( 'NONE', #129, 1000.000000000000000 ) ;
#168 = CARTESIAN_POINT ( 'NONE',  ( 2.171701392760428568E-13, -7.617303090696535366E-15, 62.19999999999998863 ) ) ;
#169 = CARTESIAN_POINT ( 'NONE',  ( 3.950000000000069011, 0.000000000000000000, 19.99999999999998579 ) ) ;
#170 = DIRECTION ( 'NONE',  ( -3.491481338843133355E-15, 0.000000000000000000, -1.000000000000000000 ) ) ;
#171 = EDGE_CURVE ( 'NONE', #180, #142, #53, .T. ) ;
#172 = CARTESIAN_POINT ( 'NONE',  ( 2.185667318115801354E-13, 3.199999999999985967, 63.00000000000000000 ) ) ;
#173 = EDGE_CURVE ( 'NONE', #180, #297, #295, .T. ) ;
#174 = CARTESIAN_POINT ( 'NONE',  ( 0.000000000000000000, 0.000000000000000000, 0.000000000000000000 ) ) ;
#175 = AXIS2_PLACEMENT_3D ( 'NONE', #328, #170, #93 ) ;
#176 = LINE ( 'NONE', #128, #31 ) ;
#177 = PRODUCT ( '42554', '42554', '', ( #240 ) ) ;
#178 = DIRECTION ( 'NONE',  ( 0.000000000000000000, 1.000000000000000000, 0.000000000000000000 ) ) ;
#179 = DIRECTION ( 'NONE',  ( 3.327098416510780115E-15, 0.3382550599108888334, 0.9410544694355800210 ) ) ;
#180 = VERTEX_POINT ( 'NONE', #323 ) ;
#181 = CARTESIAN_POINT ( 'NONE',  ( 7.007246675978374076E-14, -3.950000000000002842, 20.00000000000000000 ) ) ;
#182 = EDGE_CURVE ( 'NONE', #116, #289, #334, .T. ) ;
#183 =( NAMED_UNIT ( * ) PLANE_ANGLE_UNIT ( ) SI_UNIT ( $, .RADIAN. ) );
#184 = COLOUR_RGB ( '',0.8980392156862745390, 0.9176470588235293713, 0.9294117647058823817 ) ;
#185 = AXIS2_PLACEMENT_3D ( 'NONE', #100, #205, #124 ) ;
#186 = SHAPE_DEFINITION_REPRESENTATION ( #130, #229 ) ;
#187 = VERTEX_POINT ( 'NONE', #254 ) ;
#188 = SURFACE_STYLE_USAGE ( .BOTH. , #214 ) ;
#189 = VECTOR ( 'NONE', #92, 1000.000000000000000 ) ;
#190 = ORIENTED_EDGE ( 'NONE', *, *, #58, .T. ) ;
#191 = ORIENTED_EDGE ( 'NONE', *, *, #151, .F. ) ;
#192 = VERTEX_POINT ( 'NONE', #305 ) ;
#193 = DIRECTION ( 'NONE',  ( -1.865174681370262672E-14, -1.000000000000000000, 0.000000000000000000 ) ) ;
#194 = AXIS2_PLACEMENT_3D ( 'NONE', #8, #219, #248 ) ;
#195 = EDGE_LOOP ( 'NONE', ( #50, #325, #6, #322 ) ) ;
#196 = CARTESIAN_POINT ( 'NONE',  ( 2.199633243471174140E-13, -7.715274834628325378E-15, 63.00000000000000000 ) ) ;
#197 = FILL_AREA_STYLE_COLOUR ( '', #184 ) ;
#198 = VECTOR ( 'NONE', #179, 1000.000000000000000 ) ;
#199 = CARTESIAN_POINT ( 'NONE',  ( 2.199633243471174140E-13, -7.715274834628325378E-15, 63.00000000000000000 ) ) ;
#200 = CIRCLE ( 'NONE', #332, 3.999999999999997335 ) ;
#201 = DIRECTION ( 'NONE',  ( 0.000000000000000000, 1.000000000000000000, 0.000000000000000000 ) ) ;
#202 = LINE ( 'NONE', #223, #296 ) ;
#203 = CARTESIAN_POINT ( 'NONE',  ( 4.596518804339231071E-31, 3.950000000000000178, 1.316495309083404864E-16 ) ) ;
#204 = DIRECTION ( 'NONE',  ( 1.000000000000000000, 0.000000000000000000, -3.513364001978345245E-15 ) ) ;
#205 = DIRECTION ( 'NONE',  ( 3.491481338843133355E-15, -0.000000000000000000, 1.000000000000000000 ) ) ;
#206 = EDGE_CURVE ( 'NONE', #116, #294, #126, .T. ) ;
#207 = CLOSED_SHELL ( 'NONE', ( #217, #312, #66, #263, #86, #340, #275, #27 ) ) ;
#208 = VECTOR ( 'NONE', #220, 1000.000000000000000 ) ;
#209 = LINE ( 'NONE', #122, #49 ) ;
#210 = FACE_OUTER_BOUND ( 'NONE', #243, .T. ) ;
#211 = EDGE_CURVE ( 'NONE', #250, #246, #279, .T. ) ;
#212 = CARTESIAN_POINT ( 'NONE',  ( 6.982962677686266711E-14, -2.449293598294706513E-15, 20.00000000000000000 ) ) ;
#213 = EDGE_LOOP ( 'NONE', ( #10, #76 ) ) ;
#214 = SURFACE_SIDE_STYLE ('',( #82 ) ) ;
#215 = AXIS2_PLACEMENT_3D ( 'NONE', #75, #73, #280 ) ;
#216 = EDGE_LOOP ( 'NONE', ( #191, #234 ) ) ;
#217 = ADVANCED_FACE ( 'NONE', ( #256 ), #255, .T. ) ;
#218 =( LENGTH_UNIT ( ) NAMED_UNIT ( * ) SI_UNIT ( .MILLI., .METRE. ) );
#219 = DIRECTION ( 'NONE',  ( -3.491481338843133355E-15, 1.224646799147351975E-16, -1.000000000000000000 ) ) ;
#220 = DIRECTION ( 'NONE',  ( -3.491481338843133355E-15, 1.224646799147353207E-16, -1.000000000000000000 ) ) ;
#221 = EDGE_LOOP ( 'NONE', ( #90, #272, #32, #13 ) ) ;
#222 = FACE_OUTER_BOUND ( 'NONE', #213, .T. ) ;
#223 = CARTESIAN_POINT ( 'NONE',  ( 1.710332578358783443E-30, 4.000000000000000000, 4.898587196589412829E-16 ) ) ;
#224 = FACE_OUTER_BOUND ( 'NONE', #216, .T. ) ;
#225 = CARTESIAN_POINT ( 'NONE',  ( 6.982962677686266711E-14, 0.000000000000000000, 20.00000000000000000 ) ) ;
#226 = COLOUR_RGB ( '',0.8980392156862745390, 0.9176470588235293713, 0.9294117647058823817 ) ;
#227 = CARTESIAN_POINT ( 'NONE',  ( -3.949999999999927347, 4.837354856632043085E-16, 20.00000000000001421 ) ) ;
#228 = DIRECTION ( 'NONE',  ( 3.491481338843133355E-15, -0.000000000000000000, 1.000000000000000000 ) ) ;
#229 = ADVANCED_BREP_SHAPE_REPRESENTATION ( '42554', ( #144, #143, #290 ), #94 ) ;
#230 = DIRECTION ( 'NONE',  ( -2.382254525458720625E-15, -0.7071067811865463515, -0.7071067811865487940 ) ) ;
#231 = EDGE_CURVE ( 'NONE', #250, #114, #109, .T. ) ;
#232 = STYLED_ITEM ( 'NONE', ( #105 ), #229 ) ;
#233 = DIRECTION ( 'NONE',  ( 3.491481338843133355E-15, -0.000000000000000000, 1.000000000000000000 ) ) ;
#234 = ORIENTED_EDGE ( 'NONE', *, *, #231, .F. ) ;
#235 = ORIENTED_EDGE ( 'NONE', *, *, #38, .T. ) ;
#236 = APPLICATION_PROTOCOL_DEFINITION ( 'draft international standard', 'automotive_design', 1998, #96 ) ;
#237 = CIRCLE ( 'NONE', #194, 4.000000000000000000 ) ;
#238 = PRODUCT_DEFINITION_CONTEXT ( 'detailed design', #338, 'design' ) ;
#239 = ORIENTED_EDGE ( 'NONE', *, *, #22, .T. ) ;
#240 = PRODUCT_CONTEXT ( 'NONE', #96, 'mechanical' ) ;
#241 = DIRECTION ( 'NONE',  ( 0.000000000000000000, 0.000000000000000000, 1.000000000000000000 ) ) ;
#242 = ADVANCED_FACE ( 'NONE', ( #43 ), #70, .T. ) ;
#243 = EDGE_LOOP ( 'NONE', ( #23, #61, #311, #34 ) ) ;
#244 = DIRECTION ( 'NONE',  ( 3.491481338843133355E-15, -1.224646799147353207E-16, 1.000000000000000000 ) ) ;
#245 = AXIS2_PLACEMENT_3D ( 'NONE', #212, #20, #18 ) ;
#246 = VERTEX_POINT ( 'NONE', #227 ) ;
#247 =( NAMED_UNIT ( * ) PLANE_ANGLE_UNIT ( ) SI_UNIT ( $, .RADIAN. ) );
#248 = DIRECTION ( 'NONE',  ( 1.953992523340275511E-14, -1.000000000000000000, 0.000000000000000000 ) ) ;
#249 = SURFACE_STYLE_USAGE ( .BOTH. , #97 ) ;
#250 = VERTEX_POINT ( 'NONE', #157 ) ;
#251 = SURFACE_STYLE_FILL_AREA ( #329 ) ;
#252 = DIRECTION ( 'NONE',  ( 1.000000000000000000, 0.000000000000000000, -3.491481338843133355E-15 ) ) ;
#253 = CARTESIAN_POINT ( 'NONE',  ( 6.982962677686266711E-14, 3.949999999999997957, 20.00000000000000000 ) ) ;
#254 = CARTESIAN_POINT ( 'NONE',  ( 2.190076046592731668E-13, -3.200000000000001510, 63.00000000000000000 ) ) ;
#255 = CONICAL_SURFACE ( 'NONE', #215, 4.000000000000000000, 0.7853981633974467247 ) ;
#256 = FACE_OUTER_BOUND ( 'NONE', #195, .T. ) ;
#257 = CARTESIAN_POINT ( 'NONE',  ( 6.982962677686266711E-14, -2.449293598294706513E-15, 20.00000000000000000 ) ) ;
#258 = COLOUR_RGB ( '',0.8980392156862745390, 0.9176470588235293713, 0.9294117647058823817 ) ;
#259 = DIRECTION ( 'NONE',  ( 0.000000000000000000, -1.000000000000000000, 0.000000000000000000 ) ) ;
#260 = EDGE_LOOP ( 'NONE', ( #190, #239 ) ) ;
#261 =( NAMED_UNIT ( * ) SI_UNIT ( $, .STERADIAN. ) SOLID_ANGLE_UNIT ( ) );
#262 = UNCERTAINTY_MEASURE_WITH_UNIT (LENGTH_MEASURE( 1.000000000000000082E-05 ), #15, 'distance_accuracy_value', 'NONE');
#263 = ADVANCED_FACE ( 'NONE', ( #21 ), #19, .T. ) ;
#264 = CIRCLE ( 'NONE', #136, 3.999999999999997335 ) ;
#265 = ORIENTED_EDGE ( 'NONE', *, *, #67, .F. ) ;
#266 = ORIENTED_EDGE ( 'NONE', *, *, #211, .F. ) ;
#267 = MECHANICAL_DESIGN_GEOMETRIC_PRESENTATION_REPRESENTATION (  '', ( #123 ), #285 ) ;
#268 = DIRECTION ( 'NONE',  ( 0.000000000000000000, -1.000000000000000000, 0.000000000000000000 ) ) ;
#269 = AXIS2_PLACEMENT_3D ( 'NONE', #42, #284, #259 ) ;
#270 = DIRECTION ( 'NONE',  ( -3.491481338843133355E-15, 1.224646799147351975E-16, -1.000000000000000000 ) ) ;
#271 = CARTESIAN_POINT ( 'NONE',  ( 6.982962677686266711E-14, -2.449293598294706513E-15, 20.00000000000000000 ) ) ;
#272 = ORIENTED_EDGE ( 'NONE', *, *, #211, .T. ) ;
#273 = MECHANICAL_DESIGN_GEOMETRIC_PRESENTATION_REPRESENTATION (  '', ( #232 ), #7 ) ;
#274 =( NAMED_UNIT ( * ) SI_UNIT ( $, .STERADIAN. ) SOLID_ANGLE_UNIT ( ) );
#275 = ADVANCED_FACE ( 'NONE', ( #156 ), #140, .T. ) ;
#276 = DIRECTION ( 'NONE',  ( 1.000000000000000000, 0.000000000000000000, -3.513364001978344456E-15 ) ) ;
#277 = AXIS2_PLACEMENT_3D ( 'NONE', #64, #148, #9 ) ;
#278 = FACE_OUTER_BOUND ( 'NONE', #79, .T. ) ;
#279 = LINE ( 'NONE', #47, #167 ) ;
#280 = DIRECTION ( 'NONE',  ( 0.000000000000000000, 1.000000000000000000, 0.000000000000000000 ) ) ;
#281 = ADVANCED_FACE ( 'NONE', ( #336 ), #127, .T. ) ;
#282 = CIRCLE ( 'NONE', #74, 3.949999999999997957 ) ;
#283 = ORIENTED_EDGE ( 'NONE', *, *, #326, .F. ) ;
#284 = DIRECTION ( 'NONE',  ( 3.491481338843133355E-15, -1.224646799147353207E-16, 1.000000000000000000 ) ) ;
#285 =( GEOMETRIC_REPRESENTATION_CONTEXT ( 3 ) GLOBAL_UNCERTAINTY_ASSIGNED_CONTEXT ( ( #55 ) ) GLOBAL_UNIT_ASSIGNED_CONTEXT ( ( #218, #91, #274 ) ) REPRESENTATION_CONTEXT ( 'NONE', 'WORKASPACE' ) );
#286 = ORIENTED_EDGE ( 'NONE', *, *, #302, .F. ) ;
#287 = ORIENTED_EDGE ( 'NONE', *, *, #171, .F. ) ;
#288 = PRESENTATION_LAYER_ASSIGNMENT (  '', '', ( #29 ) ) ;
#289 = VERTEX_POINT ( 'NONE', #40 ) ;
#290 = AXIS2_PLACEMENT_3D ( 'NONE', #132, #241, #51 ) ;
#291 = ORIENTED_EDGE ( 'NONE', *, *, #111, .T. ) ;
#292 =( NAMED_UNIT ( * ) PLANE_ANGLE_UNIT ( ) SI_UNIT ( $, .RADIAN. ) );
#293 = EDGE_CURVE ( 'NONE', #192, #246, #125, .T. ) ;
#294 = VERTEX_POINT ( 'NONE', #181 ) ;
#295 = LINE ( 'NONE', #141, #208 ) ;
#296 = VECTOR ( 'NONE', #301, 1000.000000000000000 ) ;
#297 = VERTEX_POINT ( 'NONE', #71 ) ;
#298 = SURFACE_STYLE_USAGE ( .BOTH. , #30 ) ;
#299 = ORIENTED_EDGE ( 'NONE', *, *, #343, .T. ) ;
#300 = DIRECTION ( 'NONE',  ( 0.000000000000000000, -1.000000000000000000, 0.000000000000000000 ) ) ;
#301 = DIRECTION ( 'NONE',  ( -3.491481338843133355E-15, 1.224646799147353207E-16, -1.000000000000000000 ) ) ;
#302 = EDGE_CURVE ( 'NONE', #187, #180, #176, .T. ) ;
#303 = DIRECTION ( 'NONE',  ( 3.491481338843133355E-15, -0.000000000000000000, 1.000000000000000000 ) ) ;
#304 = CARTESIAN_POINT ( 'NONE',  ( 0.000000000000000000, 0.000000000000000000, 0.000000000000000000 ) ) ;
#305 = CARTESIAN_POINT ( 'NONE',  ( 3.950000000000068123, 0.000000000000000000, 19.99999999999998579 ) ) ;
#306 = AXIS2_PLACEMENT_3D ( 'NONE', #196, #244, #268 ) ;
#307 = AXIS2_PLACEMENT_3D ( 'NONE', #327, #121, #119 ) ;
#308 = CARTESIAN_POINT ( 'NONE',  ( 7.031530674270481442E-14, -2.466328958299685432E-15, 20.13910427085458110 ) ) ;
#309 = CYLINDRICAL_SURFACE ( 'NONE', #44, 4.000000000000000000 ) ;
#310 = CARTESIAN_POINT ( 'NONE',  ( 6.982962677686266711E-14, 0.000000000000000000, 20.00000000000000000 ) ) ;
#311 = ORIENTED_EDGE ( 'NONE', *, *, #67, .T. ) ;
#312 = ADVANCED_FACE ( 'NONE', ( #278 ), #80, .T. ) ;
#313 = PRESENTATION_LAYER_ASSIGNMENT (  '', '', ( #123 ) ) ;
#314 = AXIS2_PLACEMENT_3D ( 'NONE', #257, #104, #178 ) ;
#315 = ORIENTED_EDGE ( 'NONE', *, *, #326, .T. ) ;
#316 = EDGE_LOOP ( 'NONE', ( #266, #113, #291, #88 ) ) ;
#317 = CYLINDRICAL_SURFACE ( 'NONE', #133, 4.000000000000000000 ) ;
#318 = EDGE_CURVE ( 'NONE', #294, #297, #209, .T. ) ;
#319 =( LENGTH_UNIT ( ) NAMED_UNIT ( * ) SI_UNIT ( .MILLI., .METRE. ) );
#320 = EDGE_LOOP ( 'NONE', ( #2, #81 ) ) ;
#321 = CARTESIAN_POINT ( 'NONE',  ( 2.171701392760428568E-13, -7.617303090696535366E-15, 62.19999999999998863 ) ) ;
#322 = ORIENTED_EDGE ( 'NONE', *, *, #16, .F. ) ;
#323 = CARTESIAN_POINT ( 'NONE',  ( 1.442325817290327257E-13, -4.000000000000007994, 62.19999999999998863 ) ) ;
#324 = AXIS2_PLACEMENT_3D ( 'NONE', #199, #149, #300 ) ;
#325 = ORIENTED_EDGE ( 'NONE', *, *, #302, .T. ) ;
#326 = EDGE_CURVE ( 'NONE', #289, #297, #264, .T. ) ;
#327 = CARTESIAN_POINT ( 'NONE',  ( 0.000000000000000000, 0.000000000000000000, 0.000000000000000000 ) ) ;
#328 = CARTESIAN_POINT ( 'NONE',  ( 6.982962677686266711E-14, 3.949999999999997957, 20.00000000000000000 ) ) ;
#329 = FILL_AREA_STYLE ('',( #197 ) ) ;
#330 = EDGE_CURVE ( 'NONE', #246, #192, #282, .T. ) ;
#331 = DIRECTION ( 'NONE',  ( 4.275831445896958607E-31, 1.000000000000000000, 1.224646799147353207E-16 ) ) ;
#332 = AXIS2_PLACEMENT_3D ( 'NONE', #24, #4, #25 ) ;
#333 = CARTESIAN_POINT ( 'NONE',  ( 3.950000000000000178, 0.000000000000000000, -1.379135128843037675E-14 ) ) ;
#334 = LINE ( 'NONE', #153, #198 ) ;
#335 = AXIS2_PLACEMENT_3D ( 'NONE', #310, #228, #276 ) ;
#336 = FACE_OUTER_BOUND ( 'NONE', #316, .T. ) ;
#337 = DIRECTION ( 'NONE',  ( 3.285674118869253138E-15, -0.3382550599108889999, 0.9410544694355799100 ) ) ;
#338 = APPLICATION_CONTEXT ( 'automotive_design' ) ;
#339 = CLOSED_SHELL ( 'NONE', ( #242, #281, #46, #159 ) ) ;
#340 = ADVANCED_FACE ( 'NONE', ( #210 ), #309, .T. ) ;
#341 = DIRECTION ( 'NONE',  ( 0.000000000000000000, 1.000000000000000000, 0.000000000000000000 ) ) ;
#342 = DIRECTION ( 'NONE',  ( -3.491481338843133355E-15, 1.224646799147353207E-16, -1.000000000000000000 ) ) ;
#343 = EDGE_CURVE ( 'NONE', #297, #289, #200, .T. ) ;
ENDSEC;
END-ISO-10303-21;
