ISO-10303-21;
HEADER;
FILE_DESCRIPTION (( 'STEP AP203' ),
    '1' );
FILE_NAME ('42544.step',
    '2021-11-12T08:36:43',
    ( '' ),
    ( '' ),
    'SwSTEP 2.0',
    'SolidWorks 2019',
    '' );
FILE_SCHEMA (( 'CONFIG_CONTROL_DESIGN' ));
ENDSEC;

DATA;
#1 = APPROVAL_PERSON_ORGANIZATION ( #99, #42, #185 ) ;
#2 = CARTESIAN_POINT ( 'NONE',  ( 2.199633243471174140E-13, 2.624579619658238771E-32, 63.00000000000000000 ) ) ;
#3 = VERTEX_POINT ( 'NONE', #75 ) ;
#4 = FACE_OUTER_BOUND ( 'NONE', #118, .T. ) ;
#5 = CARTESIAN_POINT ( 'NONE',  ( -8.551662891793915461E-31, 2.999519565323715216E-32, -2.449293598294706414E-16 ) ) ;
#6 = ORIENTED_EDGE ( 'NONE', *, *, #141, .F. ) ;
#7 = ADVANCED_FACE ( 'NONE', ( #133 ), #186, .T. ) ;
#8 = PLANE ( 'NONE',  #134 ) ;
#9 = ORGANIZATION ( 'UNSPECIFIED', 'UNSPECIFIED', '' ) ;
#10 = CC_DESIGN_DATE_AND_TIME_ASSIGNMENT ( #47, #198, ( #28 ) ) ;
#11 = DIRECTION ( 'NONE',  ( 4.275831445896958607E-31, 1.000000000000000000, 1.224646799147353207E-16 ) ) ;
#12 = COORDINATED_UNIVERSAL_TIME_OFFSET ( 1, 0, .AHEAD. ) ;
#13 = CALENDAR_DATE ( 2021, 12, 11 ) ;
#14 = PERSON_AND_ORGANIZATION_ROLE ( 'design_supplier' ) ;
#15 = AXIS2_PLACEMENT_3D ( 'NONE', #97, #195, #11 ) ;
#16 = AXIS2_PLACEMENT_3D ( 'NONE', #92, #94, #104 ) ;
#17 = ADVANCED_FACE ( 'NONE', ( #125, #107 ), #123, .T. ) ;
#18 = EDGE_LOOP ( 'NONE', ( #95 ) ) ;
#19 = APPROVAL_DATE_TIME ( #39, #42 ) ;
#20 = LOCAL_TIME ( 9, 36, 43.00000000000000000, #12 ) ;
#21 = CARTESIAN_POINT ( 'NONE',  ( 5.586370142149013368E-14, 2.999519565323712479E-32, 16.00000000000000000 ) ) ;
#22 = APPROVAL ( #65, 'UNSPECIFIED' ) ;
#23 = CC_DESIGN_APPROVAL ( #22, ( #191 ) ) ;
#24 = FACE_OUTER_BOUND ( 'NONE', #115, .T. ) ;
#25 = FACE_BOUND ( 'NONE', #69, .T. ) ;
#26 = ORIENTED_EDGE ( 'NONE', *, *, #63, .F. ) ;
#27 = PERSON_AND_ORGANIZATION_ROLE ( 'creator' ) ;
#28 = PRODUCT_DEFINITION ( 'UNKNOWN', '', #191, #64 ) ;
#29 = PERSON_AND_ORGANIZATION ( #105, #9 ) ;
#30 = DIRECTION ( 'NONE',  ( -3.491481338843133355E-15, 1.224646799147353207E-16, -1.000000000000000000 ) ) ;
#31 = COORDINATED_UNIVERSAL_TIME_OFFSET ( 1, 0, .AHEAD. ) ;
#32 = PERSON_AND_ORGANIZATION ( #105, #9 ) ;
#33 = DATE_AND_TIME ( #180, #143 ) ;
#34 = AXIS2_PLACEMENT_3D ( 'NONE', #81, #103, #54 ) ;
#35 = EDGE_LOOP ( 'NONE', ( #26 ) ) ;
#36 = ADVANCED_FACE ( 'NONE', ( #25, #4 ), #45, .T. ) ;
#37 = EDGE_LOOP ( 'NONE', ( #201 ) ) ;
#38 = APPROVAL ( #62, 'UNSPECIFIED' ) ;
#39 = DATE_AND_TIME ( #51, #174 ) ;
#40 = VERTEX_POINT ( 'NONE', #171 ) ;
#41 = MANIFOLD_SOLID_BREP ( 'Corps-Déplacer/Copier1[1]', #144 ) ;
#42 = APPROVAL ( #162, 'UNSPECIFIED' ) ;
#43 = MANIFOLD_SOLID_BREP ( 'Corps-Déplacer/Copier1[2]', #172 ) ;
#44 = AXIS2_PLACEMENT_3D ( 'NONE', #132, #30, #155 ) ;
#45 = CONICAL_SURFACE ( 'NONE', #16, 3.999999999999999112, 0.7853981633974473908 ) ;
#46 = ORIENTED_EDGE ( 'NONE', *, *, #110, .F. ) ;
#47 = DATE_AND_TIME ( #82, #20 ) ;
#48 =( GEOMETRIC_REPRESENTATION_CONTEXT ( 3 ) GLOBAL_UNCERTAINTY_ASSIGNED_CONTEXT ( ( #177 ) ) GLOBAL_UNIT_ASSIGNED_CONTEXT ( ( #93, #127, #114 ) ) REPRESENTATION_CONTEXT ( 'NONE', 'WORKASPACE' ) );
#49 = EDGE_LOOP ( 'NONE', ( #46 ) ) ;
#50 = CC_DESIGN_APPROVAL ( #42, ( #72 ) ) ;
#51 = CALENDAR_DATE ( 2021, 12, 11 ) ;
#52 = DIRECTION ( 'NONE',  ( 4.275831445896958607E-31, 1.000000000000000000, 1.224646799147353207E-16 ) ) ;
#53 = CIRCLE ( 'NONE', #86, 3.999999999999999112 ) ;
#54 = DIRECTION ( 'NONE',  ( 4.275831445896958607E-31, 1.000000000000000000, 1.224646799147353207E-16 ) ) ;
#55 = ADVANCED_FACE ( 'NONE', ( #24 ), #8, .T. ) ;
#56 = CARTESIAN_POINT ( 'NONE',  ( 2.182175836776958284E-13, -7.654042494670957804E-15, 62.50000000000000000 ) ) ;
#57 = PRODUCT_DEFINITION_SHAPE ( 'NONE', 'NONE',  #28 ) ;
#58 = CARTESIAN_POINT ( 'NONE',  ( 3.421138828918010427E-46, 4.000000000000000000, 0.0000000000000000000 ) ) ;
#59 = AXIS2_PLACEMENT_3D ( 'NONE', #160, #60, #159 ) ;
#60 = DIRECTION ( 'NONE',  ( -3.491481338843133355E-15, 1.224646799147353207E-16, -1.000000000000000000 ) ) ;
#61 = PERSON_AND_ORGANIZATION_ROLE ( 'creator' ) ;
#62 = APPROVAL_STATUS ( 'not_yet_approved' ) ;
#63 = EDGE_CURVE ( 'NONE', #135, #135, #152, .T. ) ;
#64 = DESIGN_CONTEXT ( 'detailed design', #188, 'design' ) ;
#65 = APPROVAL_STATUS ( 'not_yet_approved' ) ;
#66 = PERSON_AND_ORGANIZATION_ROLE ( 'classification_officer' ) ;
#67 = LOCAL_TIME ( 9, 36, 43.00000000000000000, #164 ) ;
#68 = CC_DESIGN_PERSON_AND_ORGANIZATION_ASSIGNMENT ( #194, #61, ( #28 ) ) ;
#69 = EDGE_LOOP ( 'NONE', ( #183 ) ) ;
#70 = FACE_OUTER_BOUND ( 'NONE', #35, .T. ) ;
#71 = AXIS2_PLACEMENT_3D ( 'NONE', #90, #173, #189 ) ;
#72 = SECURITY_CLASSIFICATION ( '', '', #84 ) ;
#73 = EDGE_CURVE ( 'NONE', #40, #40, #53, .T. ) ;
#74 = DIRECTION ( 'NONE',  ( 3.491481338843133355E-15, -1.224646799147353207E-16, 1.000000000000000000 ) ) ;
#75 = CARTESIAN_POINT ( 'NONE',  ( 5.586370142149013368E-14, 3.999999999999998224, 16.00000000000000000 ) ) ;
#76 = AXIS2_PLACEMENT_3D ( 'NONE', #139, #202, #203 ) ;
#77 = VERTEX_POINT ( 'NONE', #150 ) ;
#78 = DIRECTION ( 'NONE',  ( 4.275831445896958607E-31, 1.000000000000000000, 1.224646799147353207E-16 ) ) ;
#79 = ORIENTED_EDGE ( 'NONE', *, *, #116, .T. ) ;
#80 = PERSON_AND_ORGANIZATION ( #105, #9 ) ;
#81 = CARTESIAN_POINT ( 'NONE',  ( -1.710332578358783092E-30, 5.999039130647430431E-32, -4.898587196589412829E-16 ) ) ;
#82 = CALENDAR_DATE ( 2021, 12, 11 ) ;
#83 = CARTESIAN_POINT ( 'NONE',  ( 0.0000000000000000000, 0.0000000000000000000, 0.0000000000000000000 ) ) ;
#84 = SECURITY_CLASSIFICATION_LEVEL ( 'unclassified' ) ;
#85 = ORIENTED_EDGE ( 'NONE', *, *, #110, .T. ) ;
#86 = AXIS2_PLACEMENT_3D ( 'NONE', #56, #101, #197 ) ;
#87 = FACE_OUTER_BOUND ( 'NONE', #109, .T. ) ;
#88 = DIRECTION ( 'NONE',  ( -4.275831445896958607E-31, -1.000000000000000000, -1.224646799147353207E-16 ) ) ;
#89 = AXIS2_PLACEMENT_3D ( 'NONE', #2, #146, #52 ) ;
#90 = CARTESIAN_POINT ( 'NONE',  ( 2.199633243471174140E-13, -7.715274834628325378E-15, 63.00000000000000000 ) ) ;
#91 = PRODUCT ( '42544', '42544', '', ( #196 ) ) ;
#92 = CARTESIAN_POINT ( 'NONE',  ( 2.182175836776958284E-13, -7.654042494670957804E-15, 62.50000000000000000 ) ) ;
#93 =( LENGTH_UNIT ( ) NAMED_UNIT ( * ) SI_UNIT ( .MILLI., .METRE. ) );
#94 = DIRECTION ( 'NONE',  ( -3.491481338843133355E-15, 1.224646799147353207E-16, -1.000000000000000000 ) ) ;
#95 = ORIENTED_EDGE ( 'NONE', *, *, #116, .F. ) ;
#96 = APPLICATION_PROTOCOL_DEFINITION ( 'international standard', 'config_control_design', 1994, #161 ) ;
#97 = CARTESIAN_POINT ( 'NONE',  ( 0.0000000000000000000, 0.0000000000000000000, 0.0000000000000000000 ) ) ;
#98 = PERSON_AND_ORGANIZATION ( #105, #9 ) ;
#99 = PERSON_AND_ORGANIZATION ( #105, #9 ) ;
#100 = CIRCLE ( 'NONE', #34, 4.000000000000000000 ) ;
#101 = DIRECTION ( 'NONE',  ( -3.491481338843133355E-15, 1.224646799147353207E-16, -1.000000000000000000 ) ) ;
#102 = SHAPE_DEFINITION_REPRESENTATION ( #57, #119 ) ;
#103 = DIRECTION ( 'NONE',  ( -3.491481338843133355E-15, 1.224646799147353207E-16, -1.000000000000000000 ) ) ;
#104 = DIRECTION ( 'NONE',  ( 0.0000000000000000000, 1.000000000000000000, 0.0000000000000000000 ) ) ;
#105 = PERSON ( 'UNSPECIFIED', 'UNSPECIFIED', 'UNSPECIFIED', ('UNSPECIFIED'), ('UNSPECIFIED'), ('UNSPECIFIED') ) ;
#106 = AXIS2_PLACEMENT_3D ( 'NONE', #21, #74, #88 ) ;
#107 = FACE_OUTER_BOUND ( 'NONE', #49, .T. ) ;
#108 = DATE_TIME_ROLE ( 'classification_date' ) ;
#109 = EDGE_LOOP ( 'NONE', ( #79 ) ) ;
#110 = EDGE_CURVE ( 'NONE', #3, #3, #113, .T. ) ;
#111 = PERSON_AND_ORGANIZATION_ROLE ( 'design_owner' ) ;
#112 = PERSON_AND_ORGANIZATION ( #105, #9 ) ;
#113 = CIRCLE ( 'NONE', #76, 4.000000000000000000 ) ;
#114 =( NAMED_UNIT ( * ) SI_UNIT ( $, .STERADIAN. ) SOLID_ANGLE_UNIT ( ) );
#115 = EDGE_LOOP ( 'NONE', ( #153 ) ) ;
#116 = EDGE_CURVE ( 'NONE', #77, #77, #182, .T. ) ;
#117 = CYLINDRICAL_SURFACE ( 'NONE', #15, 4.000000000000000000 ) ;
#118 = EDGE_LOOP ( 'NONE', ( #192 ) ) ;
#119 = ADVANCED_BREP_SHAPE_REPRESENTATION ( '42544', ( #41, #43, #137 ), #48 ) ;
#120 = COORDINATED_UNIVERSAL_TIME_OFFSET ( 1, 0, .AHEAD. ) ;
#121 = CARTESIAN_POINT ( 'NONE',  ( 2.199633243471174140E-13, 3.499999999999992006, 63.00000000000000000 ) ) ;
#122 = CC_DESIGN_SECURITY_CLASSIFICATION ( #72, ( #191 ) ) ;
#123 = CYLINDRICAL_SURFACE ( 'NONE', #59, 4.000000000000000000 ) ;
#124 = VERTEX_POINT ( 'NONE', #58 ) ;
#125 = FACE_OUTER_BOUND ( 'NONE', #37, .T. ) ;
#126 = AXIS2_PLACEMENT_3D ( 'NONE', #147, #190, #169 ) ;
#127 =( NAMED_UNIT ( * ) PLANE_ANGLE_UNIT ( ) SI_UNIT ( $, .RADIAN. ) );
#128 = DATE_AND_TIME ( #13, #184 ) ;
#129 = DATE_AND_TIME ( #166, #67 ) ;
#130 = COORDINATED_UNIVERSAL_TIME_OFFSET ( 1, 0, .AHEAD. ) ;
#131 = APPROVAL_PERSON_ORGANIZATION ( #29, #38, #165 ) ;
#132 = CARTESIAN_POINT ( 'NONE',  ( 5.586370142149013368E-14, -1.959434878635765131E-15, 16.00000000000000000 ) ) ;
#133 = FACE_OUTER_BOUND ( 'NONE', #18, .T. ) ;
#134 = AXIS2_PLACEMENT_3D ( 'NONE', #5, #193, #78 ) ;
#135 = VERTEX_POINT ( 'NONE', #121 ) ;
#136 = ADVANCED_FACE ( 'NONE', ( #87, #179 ), #117, .T. ) ;
#137 = AXIS2_PLACEMENT_3D ( 'NONE', #83, #151, #175 ) ;
#138 = APPLICATION_PROTOCOL_DEFINITION ( 'international standard', 'config_control_design', 1994, #188 ) ;
#139 = CARTESIAN_POINT ( 'NONE',  ( 5.586370142149013368E-14, -1.959434878635765131E-15, 16.00000000000000000 ) ) ;
#140 = APPROVAL_ROLE ( '' ) ;
#141 = EDGE_CURVE ( 'NONE', #124, #124, #100, .T. ) ;
#142 = CC_DESIGN_PERSON_AND_ORGANIZATION_ASSIGNMENT ( #199, #66, ( #72 ) ) ;
#143 = LOCAL_TIME ( 9, 36, 43.00000000000000000, #130 ) ;
#144 = CLOSED_SHELL ( 'NONE', ( #168, #17, #36, #163 ) ) ;
#145 = PLANE ( 'NONE',  #89 ) ;
#146 = DIRECTION ( 'NONE',  ( -3.491481338843133355E-15, 1.224646799147353207E-16, -1.000000000000000000 ) ) ;
#147 = CARTESIAN_POINT ( 'NONE',  ( 5.586370142149013368E-14, 2.999519565323712479E-32, 16.00000000000000000 ) ) ;
#148 = EDGE_LOOP ( 'NONE', ( #6 ) ) ;
#149 = CC_DESIGN_DATE_AND_TIME_ASSIGNMENT ( #33, #108, ( #72 ) ) ;
#150 = CARTESIAN_POINT ( 'NONE',  ( 5.586370142149013368E-14, 3.999999999999998224, 16.00000000000000000 ) ) ;
#151 = DIRECTION ( 'NONE',  ( 0.0000000000000000000, 0.0000000000000000000, 1.000000000000000000 ) ) ;
#152 = CIRCLE ( 'NONE', #71, 3.499999999999999556 ) ;
#153 = ORIENTED_EDGE ( 'NONE', *, *, #141, .T. ) ;
#154 = EDGE_LOOP ( 'NONE', ( #85 ) ) ;
#155 = DIRECTION ( 'NONE',  ( 0.0000000000000000000, 1.000000000000000000, 0.0000000000000000000 ) ) ;
#156 = FACE_OUTER_BOUND ( 'NONE', #154, .T. ) ;
#157 = CC_DESIGN_PERSON_AND_ORGANIZATION_ASSIGNMENT ( #80, #111, ( #91 ) ) ;
#158 = PRODUCT_RELATED_PRODUCT_CATEGORY ( 'detail', '', ( #91 ) ) ;
#159 = DIRECTION ( 'NONE',  ( 4.275831445896958607E-31, 1.000000000000000000, 1.224646799147353207E-16 ) ) ;
#160 = CARTESIAN_POINT ( 'NONE',  ( 0.0000000000000000000, 0.0000000000000000000, 0.0000000000000000000 ) ) ;
#161 = APPLICATION_CONTEXT ( 'configuration controlled 3d designs of mechanical parts and assemblies' ) ;
#162 = APPROVAL_STATUS ( 'not_yet_approved' ) ;
#163 = ADVANCED_FACE ( 'NONE', ( #70 ), #145, .F. ) ;
#164 = COORDINATED_UNIVERSAL_TIME_OFFSET ( 1, 0, .AHEAD. ) ;
#165 = APPROVAL_ROLE ( '' ) ;
#166 = CALENDAR_DATE ( 2021, 12, 11 ) ;
#167 = APPROVAL_PERSON_ORGANIZATION ( #112, #22, #140 ) ;
#168 = ADVANCED_FACE ( 'NONE', ( #156 ), #187, .F. ) ;
#169 = DIRECTION ( 'NONE',  ( -4.275831445896958607E-31, -1.000000000000000000, -1.224646799147353207E-16 ) ) ;
#170 = CC_DESIGN_PERSON_AND_ORGANIZATION_ASSIGNMENT ( #98, #14, ( #191 ) ) ;
#171 = CARTESIAN_POINT ( 'NONE',  ( 2.182175836776958284E-13, 3.999999999999991562, 62.50000000000000000 ) ) ;
#172 = CLOSED_SHELL ( 'NONE', ( #55, #136, #7 ) ) ;
#173 = DIRECTION ( 'NONE',  ( -3.491481338843133355E-15, 1.224646799147353207E-16, -1.000000000000000000 ) ) ;
#174 = LOCAL_TIME ( 9, 36, 43.00000000000000000, #120 ) ;
#175 = DIRECTION ( 'NONE',  ( 1.000000000000000000, 0.0000000000000000000, 0.0000000000000000000 ) ) ;
#176 = APPROVAL_DATE_TIME ( #128, #38 ) ;
#177 = UNCERTAINTY_MEASURE_WITH_UNIT (LENGTH_MEASURE( 1.000000000000000082E-05 ), #93, 'distance_accuracy_value', 'NONE');
#178 = APPROVAL_DATE_TIME ( #129, #22 ) ;
#179 = FACE_OUTER_BOUND ( 'NONE', #148, .T. ) ;
#180 = CALENDAR_DATE ( 2021, 12, 11 ) ;
#181 = CC_DESIGN_PERSON_AND_ORGANIZATION_ASSIGNMENT ( #32, #27, ( #191 ) ) ;
#182 = CIRCLE ( 'NONE', #44, 4.000000000000000000 ) ;
#183 = ORIENTED_EDGE ( 'NONE', *, *, #63, .T. ) ;
#184 = LOCAL_TIME ( 9, 36, 43.00000000000000000, #31 ) ;
#185 = APPROVAL_ROLE ( '' ) ;
#186 = PLANE ( 'NONE',  #126 ) ;
#187 = PLANE ( 'NONE',  #106 ) ;
#188 = APPLICATION_CONTEXT ( 'configuration controlled 3d designs of mechanical parts and assemblies' ) ;
#189 = DIRECTION ( 'NONE',  ( 0.0000000000000000000, 1.000000000000000000, 0.0000000000000000000 ) ) ;
#190 = DIRECTION ( 'NONE',  ( 3.491481338843133355E-15, -1.224646799147353207E-16, 1.000000000000000000 ) ) ;
#191 = PRODUCT_DEFINITION_FORMATION_WITH_SPECIFIED_SOURCE ( 'ANY', '', #91, .NOT_KNOWN. ) ;
#192 = ORIENTED_EDGE ( 'NONE', *, *, #73, .F. ) ;
#193 = DIRECTION ( 'NONE',  ( -3.491481338843133355E-15, 1.224646799147353207E-16, -1.000000000000000000 ) ) ;
#194 = PERSON_AND_ORGANIZATION ( #105, #9 ) ;
#195 = DIRECTION ( 'NONE',  ( -3.491481338843133355E-15, 1.224646799147353207E-16, -1.000000000000000000 ) ) ;
#196 = MECHANICAL_CONTEXT ( 'NONE', #161, 'mechanical' ) ;
#197 = DIRECTION ( 'NONE',  ( 0.0000000000000000000, 1.000000000000000000, 0.0000000000000000000 ) ) ;
#198 = DATE_TIME_ROLE ( 'creation_date' ) ;
#199 = PERSON_AND_ORGANIZATION ( #105, #9 ) ;
#200 = CC_DESIGN_APPROVAL ( #38, ( #28 ) ) ;
#201 = ORIENTED_EDGE ( 'NONE', *, *, #73, .T. ) ;
#202 = DIRECTION ( 'NONE',  ( -3.491481338843133355E-15, 1.224646799147353207E-16, -1.000000000000000000 ) ) ;
#203 = DIRECTION ( 'NONE',  ( 0.0000000000000000000, 1.000000000000000000, 0.0000000000000000000 ) ) ;
ENDSEC;
END-ISO-10303-21;
