ISO-10303-21;
HEADER;
FILE_DESCRIPTION (( 'STEP AP203' ),
    '1' );
FILE_NAME ('42543.step',
    '2021-11-12T08:36:43',
    ( '' ),
    ( '' ),
    'SwSTEP 2.0',
    'SolidWorks 2019',
    '' );
FILE_SCHEMA (( 'CONFIG_CONTROL_DESIGN' ));
ENDSEC;

DATA;
#1 = EDGE_LOOP ( 'NONE', ( #31 ) ) ;
#2 = CC_DESIGN_PERSON_AND_ORGANIZATION_ASSIGNMENT ( #139, #77, ( #114 ) ) ;
#3 = CARTESIAN_POINT ( 'NONE',  ( 1.990144363140586139E-13, 2.499999999999992895, 57.00000000000000000 ) ) ;
#4 = DIRECTION ( 'NONE',  ( 0.0000000000000000000, 1.000000000000000000, 0.0000000000000000000 ) ) ;
#5 = DIRECTION ( 'NONE',  ( -3.491481338843133355E-15, 1.224646799147353207E-16, -1.000000000000000000 ) ) ;
#6 = PRODUCT_DEFINITION_FORMATION_WITH_SPECIFIED_SOURCE ( 'ANY', '', #42, .NOT_KNOWN. ) ;
#7 = DIRECTION ( 'NONE',  ( -3.491481338843133355E-15, 1.224646799147353207E-16, -1.000000000000000000 ) ) ;
#8 = CARTESIAN_POINT ( 'NONE',  ( 1.972686956446370283E-13, -6.919254415182544548E-15, 56.49999999999999289 ) ) ;
#9 = APPROVAL_STATUS ( 'not_yet_approved' ) ;
#10 = COORDINATED_UNIVERSAL_TIME_OFFSET ( 1, 0, .AHEAD. ) ;
#11 = CIRCLE ( 'NONE', #67, 3.000000000000000000 ) ;
#12 = APPROVAL_DATE_TIME ( #79, #93 ) ;
#13 = DATE_AND_TIME ( #142, #170 ) ;
#14 = EDGE_LOOP ( 'NONE', ( #161 ) ) ;
#15 = CYLINDRICAL_SURFACE ( 'NONE', #75, 3.000000000000000000 ) ;
#16 = LOCAL_TIME ( 9, 36, 43.00000000000000000, #196 ) ;
#17 = DIRECTION ( 'NONE',  ( 3.491481338843133355E-15, -1.224646799147353207E-16, 1.000000000000000000 ) ) ;
#18 = EDGE_CURVE ( 'NONE', #149, #149, #11, .T. ) ;
#19 = CLOSED_SHELL ( 'NONE', ( #197, #34, #70, #128 ) ) ;
#20 = DIRECTION ( 'NONE',  ( 0.0000000000000000000, 1.000000000000000000, 0.0000000000000000000 ) ) ;
#21 = CARTESIAN_POINT ( 'NONE',  ( -6.413747168845438786E-31, 2.249639673992786412E-32, -1.836970198721029934E-16 ) ) ;
#22 = APPROVAL_ROLE ( '' ) ;
#23 = DIRECTION ( 'NONE',  ( 1.000000000000000000, 0.0000000000000000000, 0.0000000000000000000 ) ) ;
#24 = APPROVAL ( #9, 'UNSPECIFIED' ) ;
#25 = APPROVAL_DATE_TIME ( #127, #24 ) ;
#26 = DIRECTION ( 'NONE',  ( 0.0000000000000000000, 0.0000000000000000000, 1.000000000000000000 ) ) ;
#27 = ADVANCED_FACE ( 'NONE', ( #29, #132 ), #15, .T. ) ;
#28 = CC_DESIGN_APPROVAL ( #93, ( #114 ) ) ;
#29 = FACE_OUTER_BOUND ( 'NONE', #159, .T. ) ;
#30 = EDGE_LOOP ( 'NONE', ( #98 ) ) ;
#31 = ORIENTED_EDGE ( 'NONE', *, *, #151, .T. ) ;
#32 = CONICAL_SURFACE ( 'NONE', #152, 3.000000000000000000, 0.7853981633974415066 ) ;
#33 = DIRECTION ( 'NONE',  ( -3.491481338843133355E-15, 1.224646799147353207E-16, -1.000000000000000000 ) ) ;
#34 = ADVANCED_FACE ( 'NONE', ( #113, #175 ), #35, .T. ) ;
#35 = CYLINDRICAL_SURFACE ( 'NONE', #134, 3.000000000000000000 ) ;
#36 = DIRECTION ( 'NONE',  ( -3.491481338843133355E-15, 1.224646799147353207E-16, -1.000000000000000000 ) ) ;
#37 = PRODUCT_DEFINITION_SHAPE ( 'NONE', 'NONE',  #65 ) ;
#38 = LOCAL_TIME ( 9, 36, 43.00000000000000000, #10 ) ;
#39 = DIRECTION ( 'NONE',  ( 0.0000000000000000000, 1.000000000000000000, 0.0000000000000000000 ) ) ;
#40 = CC_DESIGN_PERSON_AND_ORGANIZATION_ASSIGNMENT ( #169, #43, ( #65 ) ) ;
#41 =( NAMED_UNIT ( * ) SI_UNIT ( $, .STERADIAN. ) SOLID_ANGLE_UNIT ( ) );
#42 = PRODUCT ( '42543', '42543', '', ( #182 ) ) ;
#43 = PERSON_AND_ORGANIZATION_ROLE ( 'creator' ) ;
#44 = DATE_AND_TIME ( #90, #84 ) ;
#45 = CALENDAR_DATE ( 2021, 12, 11 ) ;
#46 = PERSON_AND_ORGANIZATION ( #81, #199 ) ;
#47 = APPROVAL_DATE_TIME ( #44, #130 ) ;
#48 = ORIENTED_EDGE ( 'NONE', *, *, #18, .T. ) ;
#49 = ORIENTED_EDGE ( 'NONE', *, *, #185, .F. ) ;
#50 = CIRCLE ( 'NONE', #146, 3.000000000000000444 ) ;
#51 = EDGE_LOOP ( 'NONE', ( #144 ) ) ;
#52 = DIRECTION ( 'NONE',  ( 4.275831445896959482E-31, 1.000000000000000000, 1.224646799147353207E-16 ) ) ;
#53 = DIRECTION ( 'NONE',  ( 3.491481338843133355E-15, -1.224646799147353207E-16, 1.000000000000000000 ) ) ;
#54 = FACE_OUTER_BOUND ( 'NONE', #68, .T. ) ;
#55 =( LENGTH_UNIT ( ) NAMED_UNIT ( * ) SI_UNIT ( .MILLI., .METRE. ) );
#56 = DIRECTION ( 'NONE',  ( 4.275831445896958607E-31, 1.000000000000000000, 1.224646799147353207E-16 ) ) ;
#57 = FACE_OUTER_BOUND ( 'NONE', #82, .T. ) ;
#58 = PERSON_AND_ORGANIZATION_ROLE ( 'design_supplier' ) ;
#59 = PERSON_AND_ORGANIZATION ( #81, #199 ) ;
#60 = DATE_AND_TIME ( #157, #38 ) ;
#61 = AXIS2_PLACEMENT_3D ( 'NONE', #87, #7, #4 ) ;
#62 = COORDINATED_UNIVERSAL_TIME_OFFSET ( 1, 0, .AHEAD. ) ;
#63 = LOCAL_TIME ( 9, 36, 43.00000000000000000, #200 ) ;
#64 = CC_DESIGN_DATE_AND_TIME_ASSIGNMENT ( #13, #198, ( #114 ) ) ;
#65 = PRODUCT_DEFINITION ( 'UNKNOWN', '', #6, #126 ) ;
#66 = DIRECTION ( 'NONE',  ( 4.275831445896959482E-31, 1.000000000000000000, 1.224646799147353207E-16 ) ) ;
#67 = AXIS2_PLACEMENT_3D ( 'NONE', #69, #33, #66 ) ;
#68 = EDGE_LOOP ( 'NONE', ( #173 ) ) ;
#69 = CARTESIAN_POINT ( 'NONE',  ( -1.282749433769087757E-30, 4.499279347985572824E-32, -3.673940397442059868E-16 ) ) ;
#70 = ADVANCED_FACE ( 'NONE', ( #138, #165 ), #32, .T. ) ;
#71 = APPROVAL_PERSON_ORGANIZATION ( #143, #130, #129 ) ;
#72 = PLANE ( 'NONE',  #112 ) ;
#73 = CARTESIAN_POINT ( 'NONE',  ( 3.491481338843133355E-14, 2.999999999999999112, 10.00000000000000000 ) ) ;
#74 = FACE_OUTER_BOUND ( 'NONE', #171, .T. ) ;
#75 = AXIS2_PLACEMENT_3D ( 'NONE', #133, #189, #52 ) ;
#76 = CARTESIAN_POINT ( 'NONE',  ( 1.990144363140586139E-13, -6.980486755139912911E-15, 57.00000000000000000 ) ) ;
#77 = PERSON_AND_ORGANIZATION_ROLE ( 'classification_officer' ) ;
#78 = MANIFOLD_SOLID_BREP ( 'Corps-Déplacer/Copier1[2]', #140 ) ;
#79 = DATE_AND_TIME ( #45, #63 ) ;
#80 = MANIFOLD_SOLID_BREP ( 'Corps-Déplacer/Copier1[1]', #19 ) ;
#81 = PERSON ( 'UNSPECIFIED', 'UNSPECIFIED', 'UNSPECIFIED', ('UNSPECIFIED'), ('UNSPECIFIED'), ('UNSPECIFIED') ) ;
#82 = EDGE_LOOP ( 'NONE', ( #187 ) ) ;
#83 = CARTESIAN_POINT ( 'NONE',  ( 1.972686956446370283E-13, 2.999999999999993339, 56.49999999999999289 ) ) ;
#84 = LOCAL_TIME ( 9, 36, 43.00000000000000000, #183 ) ;
#85 = DIRECTION ( 'NONE',  ( -4.275831445896958607E-31, -1.000000000000000000, -1.224646799147353207E-16 ) ) ;
#86 = CC_DESIGN_PERSON_AND_ORGANIZATION_ASSIGNMENT ( #108, #58, ( #6 ) ) ;
#87 = CARTESIAN_POINT ( 'NONE',  ( 3.491481338843133355E-14, -1.224646799147353256E-15, 10.00000000000000000 ) ) ;
#88 = DIRECTION ( 'NONE',  ( 4.275831445896958607E-31, 1.000000000000000000, 1.224646799147353207E-16 ) ) ;
#89 = DATE_TIME_ROLE ( 'creation_date' ) ;
#90 = CALENDAR_DATE ( 2021, 12, 11 ) ;
#91 = UNCERTAINTY_MEASURE_WITH_UNIT (LENGTH_MEASURE( 1.000000000000000082E-05 ), #55, 'distance_accuracy_value', 'NONE');
#92 = PERSON_AND_ORGANIZATION_ROLE ( 'design_owner' ) ;
#93 = APPROVAL ( #156, 'UNSPECIFIED' ) ;
#94 = PERSON_AND_ORGANIZATION_ROLE ( 'creator' ) ;
#95 = APPLICATION_PROTOCOL_DEFINITION ( 'international standard', 'config_control_design', 1994, #147 ) ;
#96 = AXIS2_PLACEMENT_3D ( 'NONE', #76, #36, #39 ) ;
#97 = AXIS2_PLACEMENT_3D ( 'NONE', #180, #17, #85 ) ;
#98 = ORIENTED_EDGE ( 'NONE', *, *, #178, .T. ) ;
#99 = EDGE_CURVE ( 'NONE', #122, #122, #160, .T. ) ;
#100 = CARTESIAN_POINT ( 'NONE',  ( 1.972686956446370283E-13, -6.919254415182544548E-15, 56.49999999999999289 ) ) ;
#101 = ADVANCED_BREP_SHAPE_REPRESENTATION ( '42543', ( #80, #78, #141 ), #153 ) ;
#102 = DIRECTION ( 'NONE',  ( -4.275831445896958607E-31, -1.000000000000000000, -1.224646799147353207E-16 ) ) ;
#103 = ADVANCED_FACE ( 'NONE', ( #164 ), #72, .T. ) ;
#104 =( NAMED_UNIT ( * ) PLANE_ANGLE_UNIT ( ) SI_UNIT ( $, .RADIAN. ) );
#105 = DIRECTION ( 'NONE',  ( -3.491481338843133355E-15, 1.224646799147353207E-16, -1.000000000000000000 ) ) ;
#106 = PLANE ( 'NONE',  #131 ) ;
#107 = APPROVAL_PERSON_ORGANIZATION ( #158, #93, #22 ) ;
#108 = PERSON_AND_ORGANIZATION ( #81, #199 ) ;
#109 = ADVANCED_FACE ( 'NONE', ( #74 ), #150, .T. ) ;
#110 = ORIENTED_EDGE ( 'NONE', *, *, #185, .T. ) ;
#111 = CC_DESIGN_SECURITY_CLASSIFICATION ( #114, ( #6 ) ) ;
#112 = AXIS2_PLACEMENT_3D ( 'NONE', #177, #53, #102 ) ;
#113 = FACE_OUTER_BOUND ( 'NONE', #1, .T. ) ;
#114 = SECURITY_CLASSIFICATION ( '', '', #125 ) ;
#115 = VERTEX_POINT ( 'NONE', #3 ) ;
#116 = APPLICATION_CONTEXT ( 'configuration controlled 3d designs of mechanical parts and assemblies' ) ;
#117 = DIRECTION ( 'NONE',  ( 0.0000000000000000000, 1.000000000000000000, 0.0000000000000000000 ) ) ;
#118 = CARTESIAN_POINT ( 'NONE',  ( 0.0000000000000000000, 0.0000000000000000000, 0.0000000000000000000 ) ) ;
#119 = CIRCLE ( 'NONE', #190, 3.000000000000000000 ) ;
#120 = APPROVAL_PERSON_ORGANIZATION ( #202, #24, #184 ) ;
#121 = DIRECTION ( 'NONE',  ( 4.275831445896959482E-31, 1.000000000000000000, 1.224646799147353207E-16 ) ) ;
#122 = VERTEX_POINT ( 'NONE', #73 ) ;
#123 = APPROVAL_STATUS ( 'not_yet_approved' ) ;
#124 = CC_DESIGN_APPROVAL ( #130, ( #6 ) ) ;
#125 = SECURITY_CLASSIFICATION_LEVEL ( 'unclassified' ) ;
#126 = DESIGN_CONTEXT ( 'detailed design', #147, 'design' ) ;
#127 = DATE_AND_TIME ( #168, #16 ) ;
#128 = ADVANCED_FACE ( 'NONE', ( #54 ), #106, .F. ) ;
#129 = APPROVAL_ROLE ( '' ) ;
#130 = APPROVAL ( #123, 'UNSPECIFIED' ) ;
#131 = AXIS2_PLACEMENT_3D ( 'NONE', #154, #148, #56 ) ;
#132 = FACE_OUTER_BOUND ( 'NONE', #51, .T. ) ;
#133 = CARTESIAN_POINT ( 'NONE',  ( 0.0000000000000000000, 0.0000000000000000000, 0.0000000000000000000 ) ) ;
#134 = AXIS2_PLACEMENT_3D ( 'NONE', #118, #195, #121 ) ;
#135 = ORIENTED_EDGE ( 'NONE', *, *, #151, .F. ) ;
#136 = VERTEX_POINT ( 'NONE', #83 ) ;
#137 = CARTESIAN_POINT ( 'NONE',  ( 0.0000000000000000000, 3.000000000000000000, 0.0000000000000000000 ) ) ;
#138 = FACE_BOUND ( 'NONE', #30, .T. ) ;
#139 = PERSON_AND_ORGANIZATION ( #81, #199 ) ;
#140 = CLOSED_SHELL ( 'NONE', ( #109, #27, #103 ) ) ;
#141 = AXIS2_PLACEMENT_3D ( 'NONE', #201, #26, #23 ) ;
#142 = CALENDAR_DATE ( 2021, 12, 11 ) ;
#143 = PERSON_AND_ORGANIZATION ( #81, #199 ) ;
#144 = ORIENTED_EDGE ( 'NONE', *, *, #18, .F. ) ;
#145 = CIRCLE ( 'NONE', #96, 2.499999999999999556 ) ;
#146 = AXIS2_PLACEMENT_3D ( 'NONE', #162, #105, #166 ) ;
#147 = APPLICATION_CONTEXT ( 'configuration controlled 3d designs of mechanical parts and assemblies' ) ;
#148 = DIRECTION ( 'NONE',  ( -3.491481338843133355E-15, 1.224646799147353207E-16, -1.000000000000000000 ) ) ;
#149 = VERTEX_POINT ( 'NONE', #137 ) ;
#150 = PLANE ( 'NONE',  #174 ) ;
#151 = EDGE_CURVE ( 'NONE', #136, #136, #119, .T. ) ;
#152 = AXIS2_PLACEMENT_3D ( 'NONE', #100, #5, #117 ) ;
#153 =( GEOMETRIC_REPRESENTATION_CONTEXT ( 3 ) GLOBAL_UNCERTAINTY_ASSIGNED_CONTEXT ( ( #91 ) ) GLOBAL_UNIT_ASSIGNED_CONTEXT ( ( #55, #104, #41 ) ) REPRESENTATION_CONTEXT ( 'NONE', 'WORKASPACE' ) );
#154 = CARTESIAN_POINT ( 'NONE',  ( 1.990144363140586139E-13, 1.874699728327311336E-32, 57.00000000000000000 ) ) ;
#155 = APPLICATION_PROTOCOL_DEFINITION ( 'international standard', 'config_control_design', 1994, #116 ) ;
#156 = APPROVAL_STATUS ( 'not_yet_approved' ) ;
#157 = CALENDAR_DATE ( 2021, 12, 11 ) ;
#158 = PERSON_AND_ORGANIZATION ( #81, #199 ) ;
#159 = EDGE_LOOP ( 'NONE', ( #110 ) ) ;
#160 = CIRCLE ( 'NONE', #61, 3.000000000000000444 ) ;
#161 = ORIENTED_EDGE ( 'NONE', *, *, #99, .F. ) ;
#162 = CARTESIAN_POINT ( 'NONE',  ( 3.491481338843133355E-14, -1.224646799147353256E-15, 10.00000000000000000 ) ) ;
#163 = DIRECTION ( 'NONE',  ( -3.491481338843133355E-15, 1.224646799147353207E-16, -1.000000000000000000 ) ) ;
#164 = FACE_OUTER_BOUND ( 'NONE', #188, .T. ) ;
#165 = FACE_OUTER_BOUND ( 'NONE', #203, .T. ) ;
#166 = DIRECTION ( 'NONE',  ( 0.0000000000000000000, 1.000000000000000000, 0.0000000000000000000 ) ) ;
#167 = CC_DESIGN_APPROVAL ( #24, ( #65 ) ) ;
#168 = CALENDAR_DATE ( 2021, 12, 11 ) ;
#169 = PERSON_AND_ORGANIZATION ( #81, #199 ) ;
#170 = LOCAL_TIME ( 9, 36, 43.00000000000000000, #62 ) ;
#171 = EDGE_LOOP ( 'NONE', ( #48 ) ) ;
#172 = PRODUCT_RELATED_PRODUCT_CATEGORY ( 'detail', '', ( #42 ) ) ;
#173 = ORIENTED_EDGE ( 'NONE', *, *, #178, .F. ) ;
#174 = AXIS2_PLACEMENT_3D ( 'NONE', #21, #163, #88 ) ;
#175 = FACE_OUTER_BOUND ( 'NONE', #14, .T. ) ;
#176 = CC_DESIGN_DATE_AND_TIME_ASSIGNMENT ( #60, #89, ( #65 ) ) ;
#177 = CARTESIAN_POINT ( 'NONE',  ( 3.491481338843133355E-14, 2.249639673992785043E-32, 10.00000000000000000 ) ) ;
#178 = EDGE_CURVE ( 'NONE', #115, #115, #145, .T. ) ;
#179 = DIRECTION ( 'NONE',  ( -3.491481338843133355E-15, 1.224646799147353207E-16, -1.000000000000000000 ) ) ;
#180 = CARTESIAN_POINT ( 'NONE',  ( 3.491481338843133355E-14, 2.249639673992785043E-32, 10.00000000000000000 ) ) ;
#181 = CC_DESIGN_PERSON_AND_ORGANIZATION_ASSIGNMENT ( #46, #94, ( #6 ) ) ;
#182 = MECHANICAL_CONTEXT ( 'NONE', #116, 'mechanical' ) ;
#183 = COORDINATED_UNIVERSAL_TIME_OFFSET ( 1, 0, .AHEAD. ) ;
#184 = APPROVAL_ROLE ( '' ) ;
#185 = EDGE_CURVE ( 'NONE', #192, #192, #50, .T. ) ;
#186 = SHAPE_DEFINITION_REPRESENTATION ( #37, #101 ) ;
#187 = ORIENTED_EDGE ( 'NONE', *, *, #99, .T. ) ;
#188 = EDGE_LOOP ( 'NONE', ( #49 ) ) ;
#189 = DIRECTION ( 'NONE',  ( -3.491481338843133355E-15, 1.224646799147353207E-16, -1.000000000000000000 ) ) ;
#190 = AXIS2_PLACEMENT_3D ( 'NONE', #8, #179, #20 ) ;
#191 = PLANE ( 'NONE',  #97 ) ;
#192 = VERTEX_POINT ( 'NONE', #194 ) ;
#193 = CC_DESIGN_PERSON_AND_ORGANIZATION_ASSIGNMENT ( #59, #92, ( #42 ) ) ;
#194 = CARTESIAN_POINT ( 'NONE',  ( 3.491481338843133355E-14, 2.999999999999999112, 10.00000000000000000 ) ) ;
#195 = DIRECTION ( 'NONE',  ( -3.491481338843133355E-15, 1.224646799147353207E-16, -1.000000000000000000 ) ) ;
#196 = COORDINATED_UNIVERSAL_TIME_OFFSET ( 1, 0, .AHEAD. ) ;
#197 = ADVANCED_FACE ( 'NONE', ( #57 ), #191, .F. ) ;
#198 = DATE_TIME_ROLE ( 'classification_date' ) ;
#199 = ORGANIZATION ( 'UNSPECIFIED', 'UNSPECIFIED', '' ) ;
#200 = COORDINATED_UNIVERSAL_TIME_OFFSET ( 1, 0, .AHEAD. ) ;
#201 = CARTESIAN_POINT ( 'NONE',  ( 0.0000000000000000000, 0.0000000000000000000, 0.0000000000000000000 ) ) ;
#202 = PERSON_AND_ORGANIZATION ( #81, #199 ) ;
#203 = EDGE_LOOP ( 'NONE', ( #135 ) ) ;
ENDSEC;
END-ISO-10303-21;
