ISO-10303-21;
HEADER;
FILE_DESCRIPTION (( 'STEP AP203' ),
    '1' );
FILE_NAME ('42542.step',
    '2021-11-12T08:36:42',
    ( '' ),
    ( '' ),
    'SwSTEP 2.0',
    'SolidWorks 2019',
    '' );
FILE_SCHEMA (( 'CONFIG_CONTROL_DESIGN' ));
ENDSEC;

DATA;
#1 = COORDINATED_UNIVERSAL_TIME_OFFSET ( 1, 0, .AHEAD. ) ;
#2 = AXIS2_PLACEMENT_3D ( 'NONE', #28, #88, #121 ) ;
#3 = PERSON_AND_ORGANIZATION ( #160, #42 ) ;
#4 = APPLICATION_CONTEXT ( 'configuration controlled 3d designs of mechanical parts and assemblies' ) ;
#5 = APPROVAL_DATE_TIME ( #66, #125 ) ;
#6 = LOCAL_TIME ( 9, 36, 42.00000000000000000, #50 ) ;
#7 = CARTESIAN_POINT ( 'NONE',  ( 1.731774744066194397E-13, -6.074248123770872657E-15, 49.60000000000000853 ) ) ;
#8 = CARTESIAN_POINT ( 'NONE',  ( 0.0000000000000000000, 0.0000000000000000000, 0.0000000000000000000 ) ) ;
#9 = ADVANCED_FACE ( 'NONE', ( #199 ), #58, .T. ) ;
#10 = AXIS2_PLACEMENT_3D ( 'NONE', #99, #157, #72 ) ;
#11 = ORIENTED_EDGE ( 'NONE', *, *, #36, .F. ) ;
#12 = DIRECTION ( 'NONE',  ( 0.0000000000000000000, 1.000000000000000000, 0.0000000000000000000 ) ) ;
#13 = CARTESIAN_POINT ( 'NONE',  ( 2.793185071074506684E-14, 1.999999999999999112, 8.000000000000000000 ) ) ;
#14 = DIRECTION ( 'NONE',  ( 1.000000000000000000, 0.0000000000000000000, 0.0000000000000000000 ) ) ;
#15 = ORIENTED_EDGE ( 'NONE', *, *, #56, .T. ) ;
#16 = EDGE_CURVE ( 'NONE', #59, #59, #21, .T. ) ;
#17 = APPROVAL_STATUS ( 'not_yet_approved' ) ;
#18 = APPROVAL_STATUS ( 'not_yet_approved' ) ;
#19 = DATE_TIME_ROLE ( 'creation_date' ) ;
#20 = DIRECTION ( 'NONE',  ( -3.491481338843133355E-15, 1.224646799147353207E-16, -1.000000000000000000 ) ) ;
#21 = CIRCLE ( 'NONE', #48, 1.600000000000000089 ) ;
#22 = CIRCLE ( 'NONE', #156, 2.000000000000000000 ) ;
#23 = CYLINDRICAL_SURFACE ( 'NONE', #136, 2.000000000000000000 ) ;
#24 = ADVANCED_FACE ( 'NONE', ( #191 ), #169, .F. ) ;
#25 = FACE_OUTER_BOUND ( 'NONE', #47, .T. ) ;
#26 = PRODUCT_RELATED_PRODUCT_CATEGORY ( 'detail', '', ( #146 ) ) ;
#27 = DIRECTION ( 'NONE',  ( -3.491481338843133355E-15, 1.224646799147353207E-16, -1.000000000000000000 ) ) ;
#28 = CARTESIAN_POINT ( 'NONE',  ( -8.551662891793915461E-31, 2.999519565323715216E-32, -2.449293598294706414E-16 ) ) ;
#29 = AXIS2_PLACEMENT_3D ( 'NONE', #172, #170, #14 ) ;
#30 =( GEOMETRIC_REPRESENTATION_CONTEXT ( 3 ) GLOBAL_UNCERTAINTY_ASSIGNED_CONTEXT ( ( #192 ) ) GLOBAL_UNIT_ASSIGNED_CONTEXT ( ( #60, #108, #74 ) ) REPRESENTATION_CONTEXT ( 'NONE', 'WORKASPACE' ) );
#31 = ADVANCED_FACE ( 'NONE', ( #195, #181 ), #81, .T. ) ;
#32 = EDGE_LOOP ( 'NONE', ( #109 ) ) ;
#33 = EDGE_LOOP ( 'NONE', ( #102 ) ) ;
#34 = CC_DESIGN_APPROVAL ( #149, ( #185 ) ) ;
#35 = APPROVAL_STATUS ( 'not_yet_approved' ) ;
#36 = EDGE_CURVE ( 'NONE', #155, #155, #111, .T. ) ;
#37 = CALENDAR_DATE ( 2021, 12, 11 ) ;
#38 = APPLICATION_CONTEXT ( 'configuration controlled 3d designs of mechanical parts and assemblies' ) ;
#39 = DIRECTION ( 'NONE',  ( -4.275831445896958607E-31, -1.000000000000000000, -1.224646799147353207E-16 ) ) ;
#40 = LOCAL_TIME ( 9, 36, 42.00000000000000000, #1 ) ;
#41 = PLANE ( 'NONE',  #117 ) ;
#42 = ORGANIZATION ( 'UNSPECIFIED', 'UNSPECIFIED', '' ) ;
#43 = FACE_OUTER_BOUND ( 'NONE', #119, .T. ) ;
#44 = ORIENTED_EDGE ( 'NONE', *, *, #164, .T. ) ;
#45 = CARTESIAN_POINT ( 'NONE',  ( 2.793185071074506684E-14, 1.499759782661856239E-32, 8.000000000000000000 ) ) ;
#46 = CARTESIAN_POINT ( 'NONE',  ( 1.745740669421566678E-13, 1.599999999999994094, 50.00000000000000000 ) ) ;
#47 = EDGE_LOOP ( 'NONE', ( #180 ) ) ;
#48 = AXIS2_PLACEMENT_3D ( 'NONE', #178, #57, #168 ) ;
#49 = AXIS2_PLACEMENT_3D ( 'NONE', #153, #52, #115 ) ;
#50 = COORDINATED_UNIVERSAL_TIME_OFFSET ( 1, 0, .AHEAD. ) ;
#51 = DATE_AND_TIME ( #79, #40 ) ;
#52 = DIRECTION ( 'NONE',  ( -3.491481338843133355E-15, 1.224646799147353207E-16, -1.000000000000000000 ) ) ;
#53 = DIRECTION ( 'NONE',  ( -3.491481338843133355E-15, 1.224646799147353207E-16, -1.000000000000000000 ) ) ;
#54 = APPROVAL_PERSON_ORGANIZATION ( #129, #149, #159 ) ;
#55 = DIRECTION ( 'NONE',  ( 0.0000000000000000000, 1.000000000000000000, 0.0000000000000000000 ) ) ;
#56 = EDGE_CURVE ( 'NONE', #103, #103, #22, .T. ) ;
#57 = DIRECTION ( 'NONE',  ( -3.491481338843133355E-15, 1.224646799147353207E-16, -1.000000000000000000 ) ) ;
#58 = PLANE ( 'NONE',  #110 ) ;
#59 = VERTEX_POINT ( 'NONE', #46 ) ;
#60 =( LENGTH_UNIT ( ) NAMED_UNIT ( * ) SI_UNIT ( .MILLI., .METRE. ) );
#61 = EDGE_LOOP ( 'NONE', ( #203 ) ) ;
#62 = DIRECTION ( 'NONE',  ( 4.275831445896958607E-31, 1.000000000000000000, 1.224646799147353207E-16 ) ) ;
#63 = PERSON_AND_ORGANIZATION_ROLE ( 'creator' ) ;
#64 = CALENDAR_DATE ( 2021, 12, 11 ) ;
#65 = PERSON_AND_ORGANIZATION ( #160, #42 ) ;
#66 = DATE_AND_TIME ( #186, #165 ) ;
#67 = PERSON_AND_ORGANIZATION_ROLE ( 'creator' ) ;
#68 = CC_DESIGN_APPROVAL ( #147, ( #86 ) ) ;
#69 = CARTESIAN_POINT ( 'NONE',  ( -4.275831445896957731E-31, 1.499759782661857608E-32, -1.224646799147353207E-16 ) ) ;
#70 = CARTESIAN_POINT ( 'NONE',  ( 1.745740669421566678E-13, 1.199807826129477054E-32, 50.00000000000000000 ) ) ;
#71 = DESIGN_CONTEXT ( 'detailed design', #4, 'design' ) ;
#72 = DIRECTION ( 'NONE',  ( -4.275831445896958607E-31, -1.000000000000000000, -1.224646799147353207E-16 ) ) ;
#73 = AXIS2_PLACEMENT_3D ( 'NONE', #83, #20, #150 ) ;
#74 =( NAMED_UNIT ( * ) SI_UNIT ( $, .STERADIAN. ) SOLID_ANGLE_UNIT ( ) );
#75 = ORIENTED_EDGE ( 'NONE', *, *, #36, .T. ) ;
#76 = EDGE_LOOP ( 'NONE', ( #77 ) ) ;
#77 = ORIENTED_EDGE ( 'NONE', *, *, #16, .F. ) ;
#78 = PRODUCT_DEFINITION_SHAPE ( 'NONE', 'NONE',  #86 ) ;
#79 = CALENDAR_DATE ( 2021, 12, 11 ) ;
#80 = APPROVAL_ROLE ( '' ) ;
#81 = CONICAL_SURFACE ( 'NONE', #105, 2.000000000000000000, 0.7853981633974512766 ) ;
#82 = CALENDAR_DATE ( 2021, 12, 11 ) ;
#83 = CARTESIAN_POINT ( 'NONE',  ( 2.793185071074506684E-14, -9.797174393178825657E-16, 8.000000000000000000 ) ) ;
#84 = CLOSED_SHELL ( 'NONE', ( #175, #138, #31, #24 ) ) ;
#85 = CYLINDRICAL_SURFACE ( 'NONE', #49, 2.000000000000000000 ) ;
#86 = PRODUCT_DEFINITION ( 'UNKNOWN', '', #193, #71 ) ;
#87 = AXIS2_PLACEMENT_3D ( 'NONE', #70, #120, #116 ) ;
#88 = DIRECTION ( 'NONE',  ( -3.491481338843133355E-15, 1.224646799147353207E-16, -1.000000000000000000 ) ) ;
#89 = MECHANICAL_CONTEXT ( 'NONE', #38, 'mechanical' ) ;
#90 = PERSON_AND_ORGANIZATION_ROLE ( 'design_owner' ) ;
#91 = COORDINATED_UNIVERSAL_TIME_OFFSET ( 1, 0, .AHEAD. ) ;
#92 = ADVANCED_BREP_SHAPE_REPRESENTATION ( '42542', ( #134, #200, #29 ), #30 ) ;
#93 = CC_DESIGN_PERSON_AND_ORGANIZATION_ASSIGNMENT ( #3, #67, ( #86 ) ) ;
#94 = PERSON_AND_ORGANIZATION ( #160, #42 ) ;
#95 = CIRCLE ( 'NONE', #2, 2.000000000000000000 ) ;
#96 = DATE_AND_TIME ( #64, #189 ) ;
#97 = FACE_OUTER_BOUND ( 'NONE', #126, .T. ) ;
#98 = CIRCLE ( 'NONE', #198, 2.000000000000000000 ) ;
#99 = CARTESIAN_POINT ( 'NONE',  ( 2.793185071074506684E-14, 1.499759782661856239E-32, 8.000000000000000000 ) ) ;
#100 = CC_DESIGN_DATE_AND_TIME_ASSIGNMENT ( #96, #19, ( #86 ) ) ;
#101 = CC_DESIGN_SECURITY_CLASSIFICATION ( #185, ( #193 ) ) ;
#102 = ORIENTED_EDGE ( 'NONE', *, *, #56, .F. ) ;
#103 = VERTEX_POINT ( 'NONE', #140 ) ;
#104 = DIRECTION ( 'NONE',  ( -3.491481338843133355E-15, 1.224646799147353207E-16, -1.000000000000000000 ) ) ;
#105 = AXIS2_PLACEMENT_3D ( 'NONE', #201, #167, #152 ) ;
#106 = DIRECTION ( 'NONE',  ( 3.491481338843133355E-15, -1.224646799147353207E-16, 1.000000000000000000 ) ) ;
#107 = APPLICATION_PROTOCOL_DEFINITION ( 'international standard', 'config_control_design', 1994, #38 ) ;
#108 =( NAMED_UNIT ( * ) PLANE_ANGLE_UNIT ( ) SI_UNIT ( $, .RADIAN. ) );
#109 = ORIENTED_EDGE ( 'NONE', *, *, #151, .T. ) ;
#110 = AXIS2_PLACEMENT_3D ( 'NONE', #69, #139, #135 ) ;
#111 = CIRCLE ( 'NONE', #73, 2.000000000000000000 ) ;
#112 = PERSON_AND_ORGANIZATION ( #160, #42 ) ;
#113 = SHAPE_DEFINITION_REPRESENTATION ( #78, #92 ) ;
#114 = PERSON_AND_ORGANIZATION_ROLE ( 'classification_officer' ) ;
#115 = DIRECTION ( 'NONE',  ( 4.275831445896958607E-31, 1.000000000000000000, 1.224646799147353207E-16 ) ) ;
#116 = DIRECTION ( 'NONE',  ( 4.275831445896958607E-31, 1.000000000000000000, 1.224646799147353207E-16 ) ) ;
#117 = AXIS2_PLACEMENT_3D ( 'NONE', #45, #106, #39 ) ;
#118 = CC_DESIGN_PERSON_AND_ORGANIZATION_ASSIGNMENT ( #131, #114, ( #185 ) ) ;
#119 = EDGE_LOOP ( 'NONE', ( #11 ) ) ;
#120 = DIRECTION ( 'NONE',  ( -3.491481338843133355E-15, 1.224646799147353207E-16, -1.000000000000000000 ) ) ;
#121 = DIRECTION ( 'NONE',  ( 4.275831445896958607E-31, 1.000000000000000000, 1.224646799147353207E-16 ) ) ;
#122 = CC_DESIGN_PERSON_AND_ORGANIZATION_ASSIGNMENT ( #143, #90, ( #146 ) ) ;
#123 = VERTEX_POINT ( 'NONE', #124 ) ;
#124 = CARTESIAN_POINT ( 'NONE',  ( 2.793185071074506684E-14, 1.999999999999999112, 8.000000000000000000 ) ) ;
#125 = APPROVAL ( #18, 'UNSPECIFIED' ) ;
#126 = EDGE_LOOP ( 'NONE', ( #75 ) ) ;
#127 = VERTEX_POINT ( 'NONE', #202 ) ;
#128 = CC_DESIGN_APPROVAL ( #125, ( #193 ) ) ;
#129 = PERSON_AND_ORGANIZATION ( #160, #42 ) ;
#130 = SECURITY_CLASSIFICATION_LEVEL ( 'unclassified' ) ;
#131 = PERSON_AND_ORGANIZATION ( #160, #42 ) ;
#132 = PERSON_AND_ORGANIZATION ( #160, #42 ) ;
#133 = FACE_OUTER_BOUND ( 'NONE', #137, .T. ) ;
#134 = MANIFOLD_SOLID_BREP ( 'Corps-Déplacer/Copier1[1]', #84 ) ;
#135 = DIRECTION ( 'NONE',  ( 4.275831445896958607E-31, 1.000000000000000000, 1.224646799147353207E-16 ) ) ;
#136 = AXIS2_PLACEMENT_3D ( 'NONE', #8, #53, #62 ) ;
#137 = EDGE_LOOP ( 'NONE', ( #15 ) ) ;
#138 = ADVANCED_FACE ( 'NONE', ( #133, #25 ), #85, .T. ) ;
#139 = DIRECTION ( 'NONE',  ( -3.491481338843133355E-15, 1.224646799147353207E-16, -1.000000000000000000 ) ) ;
#140 = CARTESIAN_POINT ( 'NONE',  ( 1.731774744066194397E-13, 1.999999999999994005, 49.60000000000000853 ) ) ;
#141 = CC_DESIGN_DATE_AND_TIME_ASSIGNMENT ( #187, #148, ( #185 ) ) ;
#142 = EDGE_LOOP ( 'NONE', ( #171 ) ) ;
#143 = PERSON_AND_ORGANIZATION ( #160, #42 ) ;
#144 = APPROVAL_ROLE ( '' ) ;
#145 = APPROVAL_DATE_TIME ( #190, #147 ) ;
#146 = PRODUCT ( '42542', '42542', '', ( #89 ) ) ;
#147 = APPROVAL ( #17, 'UNSPECIFIED' ) ;
#148 = DATE_TIME_ROLE ( 'classification_date' ) ;
#149 = APPROVAL ( #35, 'UNSPECIFIED' ) ;
#150 = DIRECTION ( 'NONE',  ( 0.0000000000000000000, 1.000000000000000000, 0.0000000000000000000 ) ) ;
#151 = EDGE_CURVE ( 'NONE', #127, #127, #95, .T. ) ;
#152 = DIRECTION ( 'NONE',  ( 0.0000000000000000000, 1.000000000000000000, 0.0000000000000000000 ) ) ;
#153 = CARTESIAN_POINT ( 'NONE',  ( 0.0000000000000000000, 0.0000000000000000000, 0.0000000000000000000 ) ) ;
#154 = CARTESIAN_POINT ( 'NONE',  ( 2.793185071074506684E-14, -9.797174393178825657E-16, 8.000000000000000000 ) ) ;
#155 = VERTEX_POINT ( 'NONE', #13 ) ;
#156 = AXIS2_PLACEMENT_3D ( 'NONE', #7, #27, #55 ) ;
#157 = DIRECTION ( 'NONE',  ( 3.491481338843133355E-15, -1.224646799147353207E-16, 1.000000000000000000 ) ) ;
#158 = CC_DESIGN_PERSON_AND_ORGANIZATION_ASSIGNMENT ( #112, #63, ( #193 ) ) ;
#159 = APPROVAL_ROLE ( '' ) ;
#160 = PERSON ( 'UNSPECIFIED', 'UNSPECIFIED', 'UNSPECIFIED', ('UNSPECIFIED'), ('UNSPECIFIED'), ('UNSPECIFIED') ) ;
#161 = ADVANCED_FACE ( 'NONE', ( #43 ), #177, .T. ) ;
#162 = COORDINATED_UNIVERSAL_TIME_OFFSET ( 1, 0, .AHEAD. ) ;
#163 = COORDINATED_UNIVERSAL_TIME_OFFSET ( 1, 0, .AHEAD. ) ;
#164 = EDGE_CURVE ( 'NONE', #123, #123, #98, .T. ) ;
#165 = LOCAL_TIME ( 9, 36, 42.00000000000000000, #163 ) ;
#166 = FACE_OUTER_BOUND ( 'NONE', #61, .T. ) ;
#167 = DIRECTION ( 'NONE',  ( -3.491481338843133355E-15, 1.224646799147353207E-16, -1.000000000000000000 ) ) ;
#168 = DIRECTION ( 'NONE',  ( 0.0000000000000000000, 1.000000000000000000, 0.0000000000000000000 ) ) ;
#169 = PLANE ( 'NONE',  #87 ) ;
#170 = DIRECTION ( 'NONE',  ( 0.0000000000000000000, 0.0000000000000000000, 1.000000000000000000 ) ) ;
#171 = ORIENTED_EDGE ( 'NONE', *, *, #16, .T. ) ;
#172 = CARTESIAN_POINT ( 'NONE',  ( 0.0000000000000000000, 0.0000000000000000000, 0.0000000000000000000 ) ) ;
#173 = APPROVAL_PERSON_ORGANIZATION ( #94, #147, #144 ) ;
#174 = APPROVAL_DATE_TIME ( #51, #149 ) ;
#175 = ADVANCED_FACE ( 'NONE', ( #182 ), #41, .F. ) ;
#176 = LOCAL_TIME ( 9, 36, 42.00000000000000000, #91 ) ;
#177 = PLANE ( 'NONE',  #10 ) ;
#178 = CARTESIAN_POINT ( 'NONE',  ( 1.745740669421566678E-13, -6.123233995736766085E-15, 50.00000000000000000 ) ) ;
#179 = ADVANCED_FACE ( 'NONE', ( #97, #166 ), #23, .T. ) ;
#180 = ORIENTED_EDGE ( 'NONE', *, *, #164, .F. ) ;
#181 = FACE_OUTER_BOUND ( 'NONE', #33, .T. ) ;
#182 = FACE_OUTER_BOUND ( 'NONE', #183, .T. ) ;
#183 = EDGE_LOOP ( 'NONE', ( #44 ) ) ;
#184 = APPLICATION_PROTOCOL_DEFINITION ( 'international standard', 'config_control_design', 1994, #4 ) ;
#185 = SECURITY_CLASSIFICATION ( '', '', #130 ) ;
#186 = CALENDAR_DATE ( 2021, 12, 11 ) ;
#187 = DATE_AND_TIME ( #82, #176 ) ;
#188 = PERSON_AND_ORGANIZATION_ROLE ( 'design_supplier' ) ;
#189 = LOCAL_TIME ( 9, 36, 42.00000000000000000, #162 ) ;
#190 = DATE_AND_TIME ( #37, #6 ) ;
#191 = FACE_OUTER_BOUND ( 'NONE', #76, .T. ) ;
#192 = UNCERTAINTY_MEASURE_WITH_UNIT (LENGTH_MEASURE( 1.000000000000000082E-05 ), #60, 'distance_accuracy_value', 'NONE');
#193 = PRODUCT_DEFINITION_FORMATION_WITH_SPECIFIED_SOURCE ( 'ANY', '', #146, .NOT_KNOWN. ) ;
#194 = CC_DESIGN_PERSON_AND_ORGANIZATION_ASSIGNMENT ( #65, #188, ( #193 ) ) ;
#195 = FACE_BOUND ( 'NONE', #142, .T. ) ;
#196 = CLOSED_SHELL ( 'NONE', ( #9, #179, #161 ) ) ;
#197 = APPROVAL_PERSON_ORGANIZATION ( #132, #125, #80 ) ;
#198 = AXIS2_PLACEMENT_3D ( 'NONE', #154, #104, #12 ) ;
#199 = FACE_OUTER_BOUND ( 'NONE', #32, .T. ) ;
#200 = MANIFOLD_SOLID_BREP ( 'Corps-Déplacer/Copier1[2]', #196 ) ;
#201 = CARTESIAN_POINT ( 'NONE',  ( 1.731774744066194397E-13, -6.074248123770872657E-15, 49.60000000000000853 ) ) ;
#202 = CARTESIAN_POINT ( 'NONE',  ( 1.710569414459005214E-46, 2.000000000000000000, 0.0000000000000000000 ) ) ;
#203 = ORIENTED_EDGE ( 'NONE', *, *, #151, .F. ) ;
ENDSEC;
END-ISO-10303-21;
