ISO-10303-21;
HEADER;
FILE_DESCRIPTION (( 'STEP AP203' ),
    '1' );
FILE_NAME ('42541.step',
    '2021-11-12T08:36:42',
    ( '' ),
    ( '' ),
    'SwSTEP 2.0',
    'SolidWorks 2019',
    '' );
FILE_SCHEMA (( 'CONFIG_CONTROL_DESIGN' ));
ENDSEC;

DATA;
#1 = CALENDAR_DATE ( 2021, 12, 11 ) ;
#2 = CARTESIAN_POINT ( 'NONE',  ( 2.444036937190193349E-14, 1.499999999999999112, 7.000000000000000000 ) ) ;
#3 = DIRECTION ( 'NONE',  ( 4.275831445896959482E-31, 1.000000000000000000, 1.224646799147353207E-16 ) ) ;
#4 = EDGE_CURVE ( 'NONE', #101, #101, #191, .T. ) ;
#5 = ADVANCED_FACE ( 'NONE', ( #20 ), #12, .F. ) ;
#6 = AXIS2_PLACEMENT_3D ( 'NONE', #125, #134, #195 ) ;
#7 = ORIENTED_EDGE ( 'NONE', *, *, #103, .T. ) ;
#8 = EDGE_LOOP ( 'NONE', ( #162 ) ) ;
#9 = EDGE_LOOP ( 'NONE', ( #59 ) ) ;
#10 = DIRECTION ( 'NONE',  ( 1.000000000000000000, 0.0000000000000000000, 0.0000000000000000000 ) ) ;
#11 = PERSON_AND_ORGANIZATION ( #29, #100 ) ;
#12 = PLANE ( 'NONE',  #153 ) ;
#13 = APPROVAL_ROLE ( '' ) ;
#14 = ORIENTED_EDGE ( 'NONE', *, *, #131, .T. ) ;
#15 = SHAPE_DEFINITION_REPRESENTATION ( #99, #83 ) ;
#16 = CARTESIAN_POINT ( 'NONE',  ( -6.413747168845438786E-31, 2.249639673992786412E-32, -1.836970198721029934E-16 ) ) ;
#17 = APPROVAL ( #78, 'UNSPECIFIED' ) ;
#18 = CC_DESIGN_DATE_AND_TIME_ASSIGNMENT ( #202, #44, ( #81 ) ) ;
#19 = AXIS2_PLACEMENT_3D ( 'NONE', #66, #32, #34 ) ;
#20 = FACE_OUTER_BOUND ( 'NONE', #53, .T. ) ;
#21 = FACE_OUTER_BOUND ( 'NONE', #8, .T. ) ;
#22 = EDGE_LOOP ( 'NONE', ( #184 ) ) ;
#23 = PRODUCT_DEFINITION_FORMATION_WITH_SPECIFIED_SOURCE ( 'ANY', '', #119, .NOT_KNOWN. ) ;
#24 = CC_DESIGN_DATE_AND_TIME_ASSIGNMENT ( #62, #170, ( #69 ) ) ;
#25 = EDGE_LOOP ( 'NONE', ( #14 ) ) ;
#26 = DATE_AND_TIME ( #113, #148 ) ;
#27 = EDGE_LOOP ( 'NONE', ( #165 ) ) ;
#28 = APPROVAL_STATUS ( 'not_yet_approved' ) ;
#29 = PERSON ( 'UNSPECIFIED', 'UNSPECIFIED', 'UNSPECIFIED', ('UNSPECIFIED'), ('UNSPECIFIED'), ('UNSPECIFIED') ) ;
#30 = COORDINATED_UNIVERSAL_TIME_OFFSET ( 1, 0, .AHEAD. ) ;
#31 = APPLICATION_CONTEXT ( 'configuration controlled 3d designs of mechanical parts and assemblies' ) ;
#32 = DIRECTION ( 'NONE',  ( -3.491481338843133355E-15, 1.224646799147353207E-16, -1.000000000000000000 ) ) ;
#33 = APPROVAL_ROLE ( '' ) ;
#34 = DIRECTION ( 'NONE',  ( 4.275831445896958607E-31, 1.000000000000000000, 1.224646799147353207E-16 ) ) ;
#35 = DIRECTION ( 'NONE',  ( -3.491481338843133355E-15, 1.224646799147353207E-16, -1.000000000000000000 ) ) ;
#36 = FACE_OUTER_BOUND ( 'NONE', #49, .T. ) ;
#37 = ADVANCED_FACE ( 'NONE', ( #200, #122 ), #150, .T. ) ;
#38 = CARTESIAN_POINT ( 'NONE',  ( 1.326762908760390423E-13, -4.653657836759941941E-15, 38.00000000000000000 ) ) ;
#39 = EDGE_CURVE ( 'NONE', #80, #80, #63, .T. ) ;
#40 = COORDINATED_UNIVERSAL_TIME_OFFSET ( 1, 0, .AHEAD. ) ;
#41 = AXIS2_PLACEMENT_3D ( 'NONE', #16, #35, #79 ) ;
#42 = DIRECTION ( 'NONE',  ( -3.491481338843133355E-15, 1.224646799147353207E-16, -1.000000000000000000 ) ) ;
#43 = VERTEX_POINT ( 'NONE', #110 ) ;
#44 = DATE_TIME_ROLE ( 'creation_date' ) ;
#45 =( NAMED_UNIT ( * ) PLANE_ANGLE_UNIT ( ) SI_UNIT ( $, .RADIAN. ) );
#46 = PERSON_AND_ORGANIZATION ( #29, #100 ) ;
#47 = FACE_OUTER_BOUND ( 'NONE', #25, .T. ) ;
#48 = PRODUCT_RELATED_PRODUCT_CATEGORY ( 'detail', '', ( #119 ) ) ;
#49 = EDGE_LOOP ( 'NONE', ( #108 ) ) ;
#50 = AXIS2_PLACEMENT_3D ( 'NONE', #38, #127, #203 ) ;
#51 = AXIS2_PLACEMENT_3D ( 'NONE', #188, #143, #3 ) ;
#52 = CC_DESIGN_PERSON_AND_ORGANIZATION_ASSIGNMENT ( #46, #174, ( #23 ) ) ;
#53 = EDGE_LOOP ( 'NONE', ( #105 ) ) ;
#54 = SECURITY_CLASSIFICATION_LEVEL ( 'unclassified' ) ;
#55 = CARTESIAN_POINT ( 'NONE',  ( 1.326762908760390423E-13, 8.998558695971078593E-33, 38.00000000000000000 ) ) ;
#56 = COORDINATED_UNIVERSAL_TIME_OFFSET ( 1, 0, .AHEAD. ) ;
#57 = CIRCLE ( 'NONE', #50, 1.200000000000000178 ) ;
#58 =( GEOMETRIC_REPRESENTATION_CONTEXT ( 3 ) GLOBAL_UNCERTAINTY_ASSIGNED_CONTEXT ( ( #179 ) ) GLOBAL_UNIT_ASSIGNED_CONTEXT ( ( #140, #45, #92 ) ) REPRESENTATION_CONTEXT ( 'NONE', 'WORKASPACE' ) );
#59 = ORIENTED_EDGE ( 'NONE', *, *, #118, .F. ) ;
#60 = CALENDAR_DATE ( 2021, 12, 11 ) ;
#61 = CYLINDRICAL_SURFACE ( 'NONE', #51, 1.500000000000000000 ) ;
#62 = DATE_AND_TIME ( #60, #180 ) ;
#63 = CIRCLE ( 'NONE', #6, 1.500000000000000000 ) ;
#64 = LOCAL_TIME ( 9, 36, 42.00000000000000000, #107 ) ;
#65 = ADVANCED_FACE ( 'NONE', ( #85 ), #145, .F. ) ;
#66 = CARTESIAN_POINT ( 'NONE',  ( -3.206873584422719393E-31, 1.124819836996393206E-32, -9.184850993605149670E-17 ) ) ;
#67 = CARTESIAN_POINT ( 'NONE',  ( 1.316288464743861212E-13, 1.499999999999995337, 37.69999999999999574 ) ) ;
#68 = CIRCLE ( 'NONE', #115, 1.499999999999999778 ) ;
#69 = SECURITY_CLASSIFICATION ( '', '', #54 ) ;
#70 = CC_DESIGN_PERSON_AND_ORGANIZATION_ASSIGNMENT ( #187, #164, ( #69 ) ) ;
#71 = MANIFOLD_SOLID_BREP ( 'Corps-Déplacer/Copier1[1]', #89 ) ;
#72 = CARTESIAN_POINT ( 'NONE',  ( 2.444036937190193349E-14, 1.124819836996391837E-32, 7.000000000000000000 ) ) ;
#73 = DIRECTION ( 'NONE',  ( 4.275831445896958607E-31, 1.000000000000000000, 1.224646799147353207E-16 ) ) ;
#74 = CC_DESIGN_APPROVAL ( #192, ( #81 ) ) ;
#75 = APPROVAL_ROLE ( '' ) ;
#76 = DIRECTION ( 'NONE',  ( 4.275831445896959482E-31, 1.000000000000000000, 1.224646799147353207E-16 ) ) ;
#77 = ORIENTED_EDGE ( 'NONE', *, *, #4, .F. ) ;
#78 = APPROVAL_STATUS ( 'not_yet_approved' ) ;
#79 = DIRECTION ( 'NONE',  ( 4.275831445896959482E-31, 1.000000000000000000, 1.224646799147353207E-16 ) ) ;
#80 = VERTEX_POINT ( 'NONE', #96 ) ;
#81 = PRODUCT_DEFINITION ( 'UNKNOWN', '', #23, #102 ) ;
#82 = APPROVAL_PERSON_ORGANIZATION ( #137, #192, #33 ) ;
#83 = ADVANCED_BREP_SHAPE_REPRESENTATION ( '42541', ( #71, #136, #121 ), #58 ) ;
#84 = APPROVAL_PERSON_ORGANIZATION ( #166, #17, #75 ) ;
#85 = FACE_OUTER_BOUND ( 'NONE', #27, .T. ) ;
#86 = PLANE ( 'NONE',  #172 ) ;
#87 = ADVANCED_FACE ( 'NONE', ( #21 ), #86, .T. ) ;
#88 = DIRECTION ( 'NONE',  ( -3.491481338843133355E-15, 1.224646799147353207E-16, -1.000000000000000000 ) ) ;
#89 = CLOSED_SHELL ( 'NONE', ( #65, #37, #156, #5 ) ) ;
#90 = CARTESIAN_POINT ( 'NONE',  ( 2.444036937190193349E-14, -8.572527594031473190E-16, 7.000000000000000000 ) ) ;
#91 = APPROVAL_DATE_TIME ( #198, #192 ) ;
#92 =( NAMED_UNIT ( * ) SI_UNIT ( $, .STERADIAN. ) SOLID_ANGLE_UNIT ( ) );
#93 = APPLICATION_PROTOCOL_DEFINITION ( 'international standard', 'config_control_design', 1994, #168 ) ;
#94 = PLANE ( 'NONE',  #19 ) ;
#95 = APPROVAL_PERSON_ORGANIZATION ( #149, #120, #13 ) ;
#96 = CARTESIAN_POINT ( 'NONE',  ( 2.444036937190193349E-14, 1.499999999999999112, 7.000000000000000000 ) ) ;
#97 = CC_DESIGN_PERSON_AND_ORGANIZATION_ASSIGNMENT ( #155, #139, ( #119 ) ) ;
#98 = DIRECTION ( 'NONE',  ( -3.491481338843133355E-15, 1.224646799147353207E-16, -1.000000000000000000 ) ) ;
#99 = PRODUCT_DEFINITION_SHAPE ( 'NONE', 'NONE',  #81 ) ;
#100 = ORGANIZATION ( 'UNSPECIFIED', 'UNSPECIFIED', '' ) ;
#101 = VERTEX_POINT ( 'NONE', #2 ) ;
#102 = DESIGN_CONTEXT ( 'detailed design', #168, 'design' ) ;
#103 = EDGE_CURVE ( 'NONE', #43, #43, #57, .T. ) ;
#104 = CARTESIAN_POINT ( 'NONE',  ( 0.0000000000000000000, 0.0000000000000000000, 0.0000000000000000000 ) ) ;
#105 = ORIENTED_EDGE ( 'NONE', *, *, #103, .F. ) ;
#106 = CALENDAR_DATE ( 2021, 12, 11 ) ;
#107 = COORDINATED_UNIVERSAL_TIME_OFFSET ( 1, 0, .AHEAD. ) ;
#108 = ORIENTED_EDGE ( 'NONE', *, *, #131, .F. ) ;
#109 = MECHANICAL_CONTEXT ( 'NONE', #31, 'mechanical' ) ;
#110 = CARTESIAN_POINT ( 'NONE',  ( 1.326762908760390423E-13, 1.199999999999995515, 38.00000000000000000 ) ) ;
#111 = FACE_OUTER_BOUND ( 'NONE', #9, .T. ) ;
#112 = CC_DESIGN_PERSON_AND_ORGANIZATION_ASSIGNMENT ( #11, #189, ( #81 ) ) ;
#113 = CALENDAR_DATE ( 2021, 12, 11 ) ;
#114 = CARTESIAN_POINT ( 'NONE',  ( 1.316288464743861212E-13, -4.616918432785521081E-15, 37.69999999999999574 ) ) ;
#115 = AXIS2_PLACEMENT_3D ( 'NONE', #114, #176, #157 ) ;
#116 = CONICAL_SURFACE ( 'NONE', #182, 1.499999999999999778, 0.7853981633974450594 ) ;
#117 = VERTEX_POINT ( 'NONE', #67 ) ;
#118 = EDGE_CURVE ( 'NONE', #117, #117, #68, .T. ) ;
#119 = PRODUCT ( '42541', '42541', '', ( #109 ) ) ;
#120 = APPROVAL ( #128, 'UNSPECIFIED' ) ;
#121 = AXIS2_PLACEMENT_3D ( 'NONE', #163, #181, #10 ) ;
#122 = FACE_OUTER_BOUND ( 'NONE', #167, .T. ) ;
#123 = CARTESIAN_POINT ( 'NONE',  ( 2.444036937190193349E-14, 1.124819836996391837E-32, 7.000000000000000000 ) ) ;
#124 = EDGE_LOOP ( 'NONE', ( #7 ) ) ;
#125 = CARTESIAN_POINT ( 'NONE',  ( 2.444036937190193349E-14, -8.572527594031473190E-16, 7.000000000000000000 ) ) ;
#126 = AXIS2_PLACEMENT_3D ( 'NONE', #104, #160, #76 ) ;
#127 = DIRECTION ( 'NONE',  ( -3.491481338843133355E-15, 1.224646799147353207E-16, -1.000000000000000000 ) ) ;
#128 = APPROVAL_STATUS ( 'not_yet_approved' ) ;
#129 = APPROVAL_DATE_TIME ( #169, #17 ) ;
#130 = VERTEX_POINT ( 'NONE', #178 ) ;
#131 = EDGE_CURVE ( 'NONE', #130, #130, #158, .T. ) ;
#132 = AXIS2_PLACEMENT_3D ( 'NONE', #72, #133, #193 ) ;
#133 = DIRECTION ( 'NONE',  ( 3.491481338843133355E-15, -1.224646799147353207E-16, 1.000000000000000000 ) ) ;
#134 = DIRECTION ( 'NONE',  ( -3.491481338843133355E-15, 1.224646799147353207E-16, -1.000000000000000000 ) ) ;
#135 = PERSON_AND_ORGANIZATION ( #29, #100 ) ;
#136 = MANIFOLD_SOLID_BREP ( 'Corps-Déplacer/Copier1[2]', #199 ) ;
#137 = PERSON_AND_ORGANIZATION ( #29, #100 ) ;
#138 = DIRECTION ( 'NONE',  ( 0.0000000000000000000, 1.000000000000000000, 0.0000000000000000000 ) ) ;
#139 = PERSON_AND_ORGANIZATION_ROLE ( 'design_owner' ) ;
#140 =( LENGTH_UNIT ( ) NAMED_UNIT ( * ) SI_UNIT ( .MILLI., .METRE. ) );
#141 = FACE_BOUND ( 'NONE', #124, .T. ) ;
#142 = CALENDAR_DATE ( 2021, 12, 11 ) ;
#143 = DIRECTION ( 'NONE',  ( -3.491481338843133355E-15, 1.224646799147353207E-16, -1.000000000000000000 ) ) ;
#144 = ADVANCED_FACE ( 'NONE', ( #186, #36 ), #61, .T. ) ;
#145 = PLANE ( 'NONE',  #132 ) ;
#146 = DIRECTION ( 'NONE',  ( 3.491481338843133355E-15, -1.224646799147353207E-16, 1.000000000000000000 ) ) ;
#147 = ORIENTED_EDGE ( 'NONE', *, *, #39, .T. ) ;
#148 = LOCAL_TIME ( 9, 36, 42.00000000000000000, #30 ) ;
#149 = PERSON_AND_ORGANIZATION ( #29, #100 ) ;
#150 = CYLINDRICAL_SURFACE ( 'NONE', #126, 1.500000000000000000 ) ;
#151 = APPROVAL_DATE_TIME ( #26, #120 ) ;
#152 = APPLICATION_PROTOCOL_DEFINITION ( 'international standard', 'config_control_design', 1994, #31 ) ;
#153 = AXIS2_PLACEMENT_3D ( 'NONE', #55, #42, #73 ) ;
#154 = AXIS2_PLACEMENT_3D ( 'NONE', #90, #88, #138 ) ;
#155 = PERSON_AND_ORGANIZATION ( #29, #100 ) ;
#156 = ADVANCED_FACE ( 'NONE', ( #141, #111 ), #116, .T. ) ;
#157 = DIRECTION ( 'NONE',  ( 0.0000000000000000000, 1.000000000000000000, 0.0000000000000000000 ) ) ;
#158 = CIRCLE ( 'NONE', #41, 1.500000000000000000 ) ;
#159 = CC_DESIGN_APPROVAL ( #17, ( #23 ) ) ;
#160 = DIRECTION ( 'NONE',  ( -3.491481338843133355E-15, 1.224646799147353207E-16, -1.000000000000000000 ) ) ;
#161 = CC_DESIGN_PERSON_AND_ORGANIZATION_ASSIGNMENT ( #135, #196, ( #23 ) ) ;
#162 = ORIENTED_EDGE ( 'NONE', *, *, #39, .F. ) ;
#163 = CARTESIAN_POINT ( 'NONE',  ( 0.0000000000000000000, 0.0000000000000000000, 0.0000000000000000000 ) ) ;
#164 = PERSON_AND_ORGANIZATION_ROLE ( 'classification_officer' ) ;
#165 = ORIENTED_EDGE ( 'NONE', *, *, #4, .T. ) ;
#166 = PERSON_AND_ORGANIZATION ( #29, #100 ) ;
#167 = EDGE_LOOP ( 'NONE', ( #77 ) ) ;
#168 = APPLICATION_CONTEXT ( 'configuration controlled 3d designs of mechanical parts and assemblies' ) ;
#169 = DATE_AND_TIME ( #1, #194 ) ;
#170 = DATE_TIME_ROLE ( 'classification_date' ) ;
#171 = DIRECTION ( 'NONE',  ( 0.0000000000000000000, 1.000000000000000000, 0.0000000000000000000 ) ) ;
#172 = AXIS2_PLACEMENT_3D ( 'NONE', #123, #146, #183 ) ;
#173 = CC_DESIGN_SECURITY_CLASSIFICATION ( #69, ( #23 ) ) ;
#174 = PERSON_AND_ORGANIZATION_ROLE ( 'creator' ) ;
#175 = ADVANCED_FACE ( 'NONE', ( #47 ), #94, .T. ) ;
#176 = DIRECTION ( 'NONE',  ( -3.491481338843133355E-15, 1.224646799147353207E-16, -1.000000000000000000 ) ) ;
#177 = LOCAL_TIME ( 9, 36, 42.00000000000000000, #40 ) ;
#178 = CARTESIAN_POINT ( 'NONE',  ( 0.0000000000000000000, 1.500000000000000000, 0.0000000000000000000 ) ) ;
#179 = UNCERTAINTY_MEASURE_WITH_UNIT (LENGTH_MEASURE( 1.000000000000000082E-05 ), #140, 'distance_accuracy_value', 'NONE');
#180 = LOCAL_TIME ( 9, 36, 42.00000000000000000, #185 ) ;
#181 = DIRECTION ( 'NONE',  ( 0.0000000000000000000, 0.0000000000000000000, 1.000000000000000000 ) ) ;
#182 = AXIS2_PLACEMENT_3D ( 'NONE', #190, #98, #171 ) ;
#183 = DIRECTION ( 'NONE',  ( -4.275831445896958607E-31, -1.000000000000000000, -1.224646799147353207E-16 ) ) ;
#184 = ORIENTED_EDGE ( 'NONE', *, *, #118, .T. ) ;
#185 = COORDINATED_UNIVERSAL_TIME_OFFSET ( 1, 0, .AHEAD. ) ;
#186 = FACE_OUTER_BOUND ( 'NONE', #197, .T. ) ;
#187 = PERSON_AND_ORGANIZATION ( #29, #100 ) ;
#188 = CARTESIAN_POINT ( 'NONE',  ( 0.0000000000000000000, 0.0000000000000000000, 0.0000000000000000000 ) ) ;
#189 = PERSON_AND_ORGANIZATION_ROLE ( 'creator' ) ;
#190 = CARTESIAN_POINT ( 'NONE',  ( 1.316288464743861212E-13, -4.616918432785521081E-15, 37.69999999999999574 ) ) ;
#191 = CIRCLE ( 'NONE', #154, 1.500000000000000000 ) ;
#192 = APPROVAL ( #28, 'UNSPECIFIED' ) ;
#193 = DIRECTION ( 'NONE',  ( -4.275831445896958607E-31, -1.000000000000000000, -1.224646799147353207E-16 ) ) ;
#194 = LOCAL_TIME ( 9, 36, 42.00000000000000000, #56 ) ;
#195 = DIRECTION ( 'NONE',  ( 0.0000000000000000000, 1.000000000000000000, 0.0000000000000000000 ) ) ;
#196 = PERSON_AND_ORGANIZATION_ROLE ( 'design_supplier' ) ;
#197 = EDGE_LOOP ( 'NONE', ( #147 ) ) ;
#198 = DATE_AND_TIME ( #106, #177 ) ;
#199 = CLOSED_SHELL ( 'NONE', ( #175, #144, #87 ) ) ;
#200 = FACE_OUTER_BOUND ( 'NONE', #22, .T. ) ;
#201 = CC_DESIGN_APPROVAL ( #120, ( #69 ) ) ;
#202 = DATE_AND_TIME ( #142, #64 ) ;
#203 = DIRECTION ( 'NONE',  ( 0.0000000000000000000, 1.000000000000000000, 0.0000000000000000000 ) ) ;
ENDSEC;
END-ISO-10303-21;
