ISO-10303-21;
HEADER;
FILE_DESCRIPTION (( 'STEP AP203' ),
    '1' );
FILE_NAME ('42540.step',
    '2021-11-12T08:36:41',
    ( '' ),
    ( '' ),
    'SwSTEP 2.0',
    'SolidWorks 2019',
    '' );
FILE_SCHEMA (( 'CONFIG_CONTROL_DESIGN' ));
ENDSEC;

DATA;
#1 = CALENDAR_DATE ( 2021, 12, 11 ) ;
#2 = EDGE_LOOP ( 'NONE', ( #69 ) ) ;
#3 = AXIS2_PLACEMENT_3D ( 'NONE', #27, #73, #134 ) ;
#4 = SECURITY_CLASSIFICATION_LEVEL ( 'unclassified' ) ;
#5 = EDGE_LOOP ( 'NONE', ( #84 ) ) ;
#6 = VERTEX_POINT ( 'NONE', #91 ) ;
#7 = CIRCLE ( 'NONE', #145, 0.9999999999999997780 ) ;
#8 = ORIENTED_EDGE ( 'NONE', *, *, #49, .T. ) ;
#9 = PRODUCT_DEFINITION ( 'UNKNOWN', '', #154, #13 ) ;
#10 = DIRECTION ( 'NONE',  ( 4.275831445896958607E-31, 1.000000000000000000, 1.224646799147353207E-16 ) ) ;
#11 = CARTESIAN_POINT ( 'NONE',  ( 2.094888803305880013E-14, 7.498798913309277092E-33, 6.000000000000000000 ) ) ;
#12 = AXIS2_PLACEMENT_3D ( 'NONE', #146, #159, #163 ) ;
#13 = DESIGN_CONTEXT ( 'detailed design', #29, 'design' ) ;
#14 = CALENDAR_DATE ( 2021, 12, 11 ) ;
#15 = CALENDAR_DATE ( 2021, 12, 11 ) ;
#16 = AXIS2_PLACEMENT_3D ( 'NONE', #59, #164, #23 ) ;
#17 = EDGE_CURVE ( 'NONE', #116, #116, #78, .T. ) ;
#18 = SHAPE_DEFINITION_REPRESENTATION ( #175, #66 ) ;
#19 = FACE_OUTER_BOUND ( 'NONE', #192, .T. ) ;
#20 = DATE_AND_TIME ( #36, #83 ) ;
#21 = PLANE ( 'NONE',  #12 ) ;
#22 = CARTESIAN_POINT ( 'NONE',  ( 0.0000000000000000000, 0.0000000000000000000, 0.0000000000000000000 ) ) ;
#23 = DIRECTION ( 'NONE',  ( 0.0000000000000000000, 1.000000000000000000, 0.0000000000000000000 ) ) ;
#24 = DIRECTION ( 'NONE',  ( 4.275831445896958607E-31, 1.000000000000000000, 1.224646799147353207E-16 ) ) ;
#25 = CLOSED_SHELL ( 'NONE', ( #77, #94, #152 ) ) ;
#26 = ADVANCED_FACE ( 'NONE', ( #190, #126 ), #186, .T. ) ;
#27 = CARTESIAN_POINT ( 'NONE',  ( 1.319779946082704535E-13, -4.629164900776995227E-15, 37.79999999999999716 ) ) ;
#28 = CARTESIAN_POINT ( 'NONE',  ( 8.552847072295026068E-47, 1.000000000000000000, 0.0000000000000000000 ) ) ;
#29 = APPLICATION_CONTEXT ( 'configuration controlled 3d designs of mechanical parts and assemblies' ) ;
#30 = COORDINATED_UNIVERSAL_TIME_OFFSET ( 1, 0, .AHEAD. ) ;
#31 = CC_DESIGN_PERSON_AND_ORGANIZATION_ASSIGNMENT ( #158, #171, ( #154 ) ) ;
#32 = DIRECTION ( 'NONE',  ( 0.0000000000000000000, 0.0000000000000000000, 1.000000000000000000 ) ) ;
#33 = CC_DESIGN_PERSON_AND_ORGANIZATION_ASSIGNMENT ( #181, #110, ( #154 ) ) ;
#34 = CIRCLE ( 'NONE', #167, 1.000000000000000222 ) ;
#35 = EDGE_LOOP ( 'NONE', ( #139 ) ) ;
#36 = CALENDAR_DATE ( 2021, 12, 11 ) ;
#37 = CARTESIAN_POINT ( 'NONE',  ( -2.137915722948478865E-31, 7.498798913309288039E-33, -6.123233995736766036E-17 ) ) ;
#38 = AXIS2_PLACEMENT_3D ( 'NONE', #22, #72, #24 ) ;
#39 = COORDINATED_UNIVERSAL_TIME_OFFSET ( 1, 0, .AHEAD. ) ;
#40 = COORDINATED_UNIVERSAL_TIME_OFFSET ( 1, 0, .AHEAD. ) ;
#41 = PRODUCT ( '42540', '42540', '', ( #119 ) ) ;
#42 = DIRECTION ( 'NONE',  ( -3.491481338843133355E-15, 1.224646799147353207E-16, -1.000000000000000000 ) ) ;
#43 = EDGE_CURVE ( 'NONE', #87, #87, #202, .T. ) ;
#44 = EDGE_LOOP ( 'NONE', ( #57 ) ) ;
#45 = DIRECTION ( 'NONE',  ( -3.491481338843133355E-15, 1.224646799147353207E-16, -1.000000000000000000 ) ) ;
#46 = CARTESIAN_POINT ( 'NONE',  ( 2.094888803305880013E-14, 0.9999999999999991118, 6.000000000000000000 ) ) ;
#47 = APPROVAL_DATE_TIME ( #120, #169 ) ;
#48 = APPLICATION_PROTOCOL_DEFINITION ( 'international standard', 'config_control_design', 1994, #29 ) ;
#49 = EDGE_CURVE ( 'NONE', #90, #90, #7, .T. ) ;
#50 = APPROVAL ( #130, 'UNSPECIFIED' ) ;
#51 = DATE_AND_TIME ( #185, #64 ) ;
#52 = DIRECTION ( 'NONE',  ( -3.491481338843133355E-15, 1.224646799147353207E-16, -1.000000000000000000 ) ) ;
#53 = APPROVAL_ROLE ( '' ) ;
#54 = FACE_OUTER_BOUND ( 'NONE', #5, .T. ) ;
#55 = APPROVAL_STATUS ( 'not_yet_approved' ) ;
#56 = CC_DESIGN_DATE_AND_TIME_ASSIGNMENT ( #95, #187, ( #9 ) ) ;
#57 = ORIENTED_EDGE ( 'NONE', *, *, #17, .F. ) ;
#58 = CARTESIAN_POINT ( 'NONE',  ( -4.275831445896957731E-31, 1.499759782661857608E-32, -1.224646799147353207E-16 ) ) ;
#59 = CARTESIAN_POINT ( 'NONE',  ( 1.326762908760390423E-13, -4.653657836759941941E-15, 38.00000000000000000 ) ) ;
#60 = AXIS2_PLACEMENT_3D ( 'NONE', #137, #32, #177 ) ;
#61 = DIRECTION ( 'NONE',  ( 4.275831445896958607E-31, 1.000000000000000000, 1.224646799147353207E-16 ) ) ;
#62 = APPLICATION_PROTOCOL_DEFINITION ( 'international standard', 'config_control_design', 1994, #135 ) ;
#63 = AXIS2_PLACEMENT_3D ( 'NONE', #99, #89, #148 ) ;
#64 = LOCAL_TIME ( 9, 36, 41.00000000000000000, #156 ) ;
#65 = COORDINATED_UNIVERSAL_TIME_OFFSET ( 1, 0, .AHEAD. ) ;
#66 = ADVANCED_BREP_SHAPE_REPRESENTATION ( '42540', ( #201, #200, #60 ), #98 ) ;
#67 = APPROVAL_PERSON_ORGANIZATION ( #168, #50, #125 ) ;
#68 =( LENGTH_UNIT ( ) NAMED_UNIT ( * ) SI_UNIT ( .MILLI., .METRE. ) );
#69 = ORIENTED_EDGE ( 'NONE', *, *, #43, .F. ) ;
#70 = EDGE_LOOP ( 'NONE', ( #8 ) ) ;
#71 = DIRECTION ( 'NONE',  ( -4.275831445896958607E-31, -1.000000000000000000, -1.224646799147353207E-16 ) ) ;
#72 = DIRECTION ( 'NONE',  ( -3.491481338843133355E-15, 1.224646799147353207E-16, -1.000000000000000000 ) ) ;
#73 = DIRECTION ( 'NONE',  ( -3.491481338843133355E-15, 1.224646799147353207E-16, -1.000000000000000000 ) ) ;
#74 = CC_DESIGN_APPROVAL ( #144, ( #154 ) ) ;
#75 =( NAMED_UNIT ( * ) SI_UNIT ( $, .STERADIAN. ) SOLID_ANGLE_UNIT ( ) );
#76 = PERSON_AND_ORGANIZATION_ROLE ( 'design_owner' ) ;
#77 = ADVANCED_FACE ( 'NONE', ( #193 ), #174, .T. ) ;
#78 = CIRCLE ( 'NONE', #108, 0.9999999999999997780 ) ;
#79 = CC_DESIGN_APPROVAL ( #50, ( #150 ) ) ;
#80 = AXIS2_PLACEMENT_3D ( 'NONE', #11, #114, #71 ) ;
#81 = ADVANCED_FACE ( 'NONE', ( #195 ), #176, .F. ) ;
#82 = APPROVAL_DATE_TIME ( #111, #144 ) ;
#83 = LOCAL_TIME ( 9, 36, 41.00000000000000000, #40 ) ;
#84 = ORIENTED_EDGE ( 'NONE', *, *, #166, .F. ) ;
#85 = CARTESIAN_POINT ( 'NONE',  ( 2.094888803305880013E-14, 0.9999999999999991118, 6.000000000000000000 ) ) ;
#86 = DATE_TIME_ROLE ( 'classification_date' ) ;
#87 = VERTEX_POINT ( 'NONE', #28 ) ;
#88 = LOCAL_TIME ( 9, 36, 41.00000000000000000, #39 ) ;
#89 = DIRECTION ( 'NONE',  ( 3.491481338843133355E-15, -1.224646799147353207E-16, 1.000000000000000000 ) ) ;
#90 = VERTEX_POINT ( 'NONE', #85 ) ;
#91 = CARTESIAN_POINT ( 'NONE',  ( 1.326762908760390423E-13, 0.7999999999999951594, 38.00000000000000000 ) ) ;
#92 = CC_DESIGN_APPROVAL ( #169, ( #9 ) ) ;
#93 = PERSON_AND_ORGANIZATION ( #178, #173 ) ;
#94 = ADVANCED_FACE ( 'NONE', ( #157, #189 ), #191, .T. ) ;
#95 = DATE_AND_TIME ( #15, #162 ) ;
#96 = EDGE_LOOP ( 'NONE', ( #142 ) ) ;
#97 = APPROVAL_DATE_TIME ( #51, #50 ) ;
#98 =( GEOMETRIC_REPRESENTATION_CONTEXT ( 3 ) GLOBAL_UNCERTAINTY_ASSIGNED_CONTEXT ( ( #122 ) ) GLOBAL_UNIT_ASSIGNED_CONTEXT ( ( #68, #149, #75 ) ) REPRESENTATION_CONTEXT ( 'NONE', 'WORKASPACE' ) );
#99 = CARTESIAN_POINT ( 'NONE',  ( 2.094888803305880013E-14, 7.498798913309277092E-33, 6.000000000000000000 ) ) ;
#100 = CARTESIAN_POINT ( 'NONE',  ( 0.0000000000000000000, 0.0000000000000000000, 0.0000000000000000000 ) ) ;
#101 = DIRECTION ( 'NONE',  ( -3.491481338843133355E-15, 1.224646799147353207E-16, -1.000000000000000000 ) ) ;
#102 = ORIENTED_EDGE ( 'NONE', *, *, #115, .F. ) ;
#103 = CARTESIAN_POINT ( 'NONE',  ( 1.319779946082704535E-13, -4.629164900776995227E-15, 37.79999999999999716 ) ) ;
#104 = FACE_BOUND ( 'NONE', #96, .T. ) ;
#105 = APPROVAL_ROLE ( '' ) ;
#106 = APPROVAL_PERSON_ORGANIZATION ( #165, #169, #105 ) ;
#107 = CLOSED_SHELL ( 'NONE', ( #81, #26, #203, #179 ) ) ;
#108 = AXIS2_PLACEMENT_3D ( 'NONE', #161, #129, #128 ) ;
#109 = EDGE_LOOP ( 'NONE', ( #194 ) ) ;
#110 = PERSON_AND_ORGANIZATION_ROLE ( 'creator' ) ;
#111 = DATE_AND_TIME ( #1, #88 ) ;
#112 = DIRECTION ( 'NONE',  ( 0.0000000000000000000, 1.000000000000000000, 0.0000000000000000000 ) ) ;
#113 = DIRECTION ( 'NONE',  ( -3.491481338843133355E-15, 1.224646799147353207E-16, -1.000000000000000000 ) ) ;
#114 = DIRECTION ( 'NONE',  ( 3.491481338843133355E-15, -1.224646799147353207E-16, 1.000000000000000000 ) ) ;
#115 = EDGE_CURVE ( 'NONE', #141, #141, #34, .T. ) ;
#116 = VERTEX_POINT ( 'NONE', #46 ) ;
#117 = APPROVAL_PERSON_ORGANIZATION ( #127, #144, #53 ) ;
#118 = PRODUCT_RELATED_PRODUCT_CATEGORY ( 'detail', '', ( #41 ) ) ;
#119 = MECHANICAL_CONTEXT ( 'NONE', #135, 'mechanical' ) ;
#120 = DATE_AND_TIME ( #14, #183 ) ;
#121 = AXIS2_PLACEMENT_3D ( 'NONE', #37, #42, #61 ) ;
#122 = UNCERTAINTY_MEASURE_WITH_UNIT (LENGTH_MEASURE( 1.000000000000000082E-05 ), #68, 'distance_accuracy_value', 'NONE');
#123 = CONICAL_SURFACE ( 'NONE', #3, 1.000000000000000222, 0.7853981633974523868 ) ;
#124 = CC_DESIGN_PERSON_AND_ORGANIZATION_ASSIGNMENT ( #180, #153, ( #9 ) ) ;
#125 = APPROVAL_ROLE ( '' ) ;
#126 = FACE_OUTER_BOUND ( 'NONE', #109, .T. ) ;
#127 = PERSON_AND_ORGANIZATION ( #178, #173 ) ;
#128 = DIRECTION ( 'NONE',  ( 0.0000000000000000000, 1.000000000000000000, 0.0000000000000000000 ) ) ;
#129 = DIRECTION ( 'NONE',  ( -3.491481338843133355E-15, 1.224646799147353207E-16, -1.000000000000000000 ) ) ;
#130 = APPROVAL_STATUS ( 'not_yet_approved' ) ;
#131 = ORIENTED_EDGE ( 'NONE', *, *, #115, .T. ) ;
#132 = CC_DESIGN_PERSON_AND_ORGANIZATION_ASSIGNMENT ( #93, #76, ( #41 ) ) ;
#133 = EDGE_LOOP ( 'NONE', ( #155 ) ) ;
#134 = DIRECTION ( 'NONE',  ( 0.0000000000000000000, 1.000000000000000000, 0.0000000000000000000 ) ) ;
#135 = APPLICATION_CONTEXT ( 'configuration controlled 3d designs of mechanical parts and assemblies' ) ;
#136 = AXIS2_PLACEMENT_3D ( 'NONE', #58, #113, #184 ) ;
#137 = CARTESIAN_POINT ( 'NONE',  ( 0.0000000000000000000, 0.0000000000000000000, 0.0000000000000000000 ) ) ;
#138 = PERSON_AND_ORGANIZATION_ROLE ( 'classification_officer' ) ;
#139 = ORIENTED_EDGE ( 'NONE', *, *, #43, .T. ) ;
#140 = CARTESIAN_POINT ( 'NONE',  ( 2.094888803305880013E-14, -7.347880794884119736E-16, 6.000000000000000000 ) ) ;
#141 = VERTEX_POINT ( 'NONE', #143 ) ;
#142 = ORIENTED_EDGE ( 'NONE', *, *, #166, .T. ) ;
#143 = CARTESIAN_POINT ( 'NONE',  ( 1.319779946082704535E-13, 0.9999999999999956701, 37.79999999999999716 ) ) ;
#144 = APPROVAL ( #55, 'UNSPECIFIED' ) ;
#145 = AXIS2_PLACEMENT_3D ( 'NONE', #140, #52, #112 ) ;
#146 = CARTESIAN_POINT ( 'NONE',  ( 1.326762908760390423E-13, 5.999039130647359272E-33, 38.00000000000000000 ) ) ;
#147 = EDGE_LOOP ( 'NONE', ( #131 ) ) ;
#148 = DIRECTION ( 'NONE',  ( -4.275831445896958607E-31, -1.000000000000000000, -1.224646799147353207E-16 ) ) ;
#149 =( NAMED_UNIT ( * ) PLANE_ANGLE_UNIT ( ) SI_UNIT ( $, .RADIAN. ) );
#150 = SECURITY_CLASSIFICATION ( '', '', #4 ) ;
#151 = APPROVAL_STATUS ( 'not_yet_approved' ) ;
#152 = ADVANCED_FACE ( 'NONE', ( #196 ), #160, .T. ) ;
#153 = PERSON_AND_ORGANIZATION_ROLE ( 'creator' ) ;
#154 = PRODUCT_DEFINITION_FORMATION_WITH_SPECIFIED_SOURCE ( 'ANY', '', #41, .NOT_KNOWN. ) ;
#155 = ORIENTED_EDGE ( 'NONE', *, *, #17, .T. ) ;
#156 = COORDINATED_UNIVERSAL_TIME_OFFSET ( 1, 0, .AHEAD. ) ;
#157 = FACE_OUTER_BOUND ( 'NONE', #133, .T. ) ;
#158 = PERSON_AND_ORGANIZATION ( #178, #173 ) ;
#159 = DIRECTION ( 'NONE',  ( -3.491481338843133355E-15, 1.224646799147353207E-16, -1.000000000000000000 ) ) ;
#160 = PLANE ( 'NONE',  #63 ) ;
#161 = CARTESIAN_POINT ( 'NONE',  ( 2.094888803305880013E-14, -7.347880794884119736E-16, 6.000000000000000000 ) ) ;
#162 = LOCAL_TIME ( 9, 36, 41.00000000000000000, #30 ) ;
#163 = DIRECTION ( 'NONE',  ( 4.275831445896958607E-31, 1.000000000000000000, 1.224646799147353207E-16 ) ) ;
#164 = DIRECTION ( 'NONE',  ( -3.491481338843133355E-15, 1.224646799147353207E-16, -1.000000000000000000 ) ) ;
#165 = PERSON_AND_ORGANIZATION ( #178, #173 ) ;
#166 = EDGE_CURVE ( 'NONE', #6, #6, #198, .T. ) ;
#167 = AXIS2_PLACEMENT_3D ( 'NONE', #103, #101, #172 ) ;
#168 = PERSON_AND_ORGANIZATION ( #178, #173 ) ;
#169 = APPROVAL ( #151, 'UNSPECIFIED' ) ;
#170 = PERSON_AND_ORGANIZATION ( #178, #173 ) ;
#171 = PERSON_AND_ORGANIZATION_ROLE ( 'design_supplier' ) ;
#172 = DIRECTION ( 'NONE',  ( 0.0000000000000000000, 1.000000000000000000, 0.0000000000000000000 ) ) ;
#173 = ORGANIZATION ( 'UNSPECIFIED', 'UNSPECIFIED', '' ) ;
#174 = PLANE ( 'NONE',  #121 ) ;
#175 = PRODUCT_DEFINITION_SHAPE ( 'NONE', 'NONE',  #9 ) ;
#176 = PLANE ( 'NONE',  #80 ) ;
#177 = DIRECTION ( 'NONE',  ( 1.000000000000000000, 0.0000000000000000000, 0.0000000000000000000 ) ) ;
#178 = PERSON ( 'UNSPECIFIED', 'UNSPECIFIED', 'UNSPECIFIED', ('UNSPECIFIED'), ('UNSPECIFIED'), ('UNSPECIFIED') ) ;
#179 = ADVANCED_FACE ( 'NONE', ( #54 ), #21, .F. ) ;
#180 = PERSON_AND_ORGANIZATION ( #178, #173 ) ;
#181 = PERSON_AND_ORGANIZATION ( #178, #173 ) ;
#182 = AXIS2_PLACEMENT_3D ( 'NONE', #100, #45, #10 ) ;
#183 = LOCAL_TIME ( 9, 36, 41.00000000000000000, #65 ) ;
#184 = DIRECTION ( 'NONE',  ( 4.275831445896958607E-31, 1.000000000000000000, 1.224646799147353207E-16 ) ) ;
#185 = CALENDAR_DATE ( 2021, 12, 11 ) ;
#186 = CYLINDRICAL_SURFACE ( 'NONE', #38, 1.000000000000000000 ) ;
#187 = DATE_TIME_ROLE ( 'creation_date' ) ;
#188 = CC_DESIGN_DATE_AND_TIME_ASSIGNMENT ( #20, #86, ( #150 ) ) ;
#189 = FACE_OUTER_BOUND ( 'NONE', #2, .T. ) ;
#190 = FACE_OUTER_BOUND ( 'NONE', #147, .T. ) ;
#191 = CYLINDRICAL_SURFACE ( 'NONE', #182, 1.000000000000000000 ) ;
#192 = EDGE_LOOP ( 'NONE', ( #102 ) ) ;
#193 = FACE_OUTER_BOUND ( 'NONE', #35, .T. ) ;
#194 = ORIENTED_EDGE ( 'NONE', *, *, #49, .F. ) ;
#195 = FACE_OUTER_BOUND ( 'NONE', #70, .T. ) ;
#196 = FACE_OUTER_BOUND ( 'NONE', #44, .T. ) ;
#197 = CC_DESIGN_PERSON_AND_ORGANIZATION_ASSIGNMENT ( #170, #138, ( #150 ) ) ;
#198 = CIRCLE ( 'NONE', #16, 0.7999999999999998224 ) ;
#199 = CC_DESIGN_SECURITY_CLASSIFICATION ( #150, ( #154 ) ) ;
#200 = MANIFOLD_SOLID_BREP ( 'Corps-Déplacer/Copier1[2]', #25 ) ;
#201 = MANIFOLD_SOLID_BREP ( 'Corps-Déplacer/Copier1[1]', #107 ) ;
#202 = CIRCLE ( 'NONE', #136, 1.000000000000000000 ) ;
#203 = ADVANCED_FACE ( 'NONE', ( #104, #19 ), #123, .T. ) ;
ENDSEC;
END-ISO-10303-21;
