ISO-10303-21;
HEADER;
FILE_DESCRIPTION (( 'STEP AP203' ),
    '1' );
FILE_NAME ('42539.step',
    '2021-10-06T08:25:02',
    ( '' ),
    ( '' ),
    'SwSTEP 2.0',
    'SolidWorks 2019',
    '' );
FILE_SCHEMA (( 'CONFIG_CONTROL_DESIGN' ));
ENDSEC;

DATA;
#1 = APPROVAL_STATUS ( 'not_yet_approved' ) ;
#2 = LOCAL_TIME ( 10, 25, 2.000000000000000000, #56 ) ;
#3 = PERSON_AND_ORGANIZATION ( #65, #165 ) ;
#4 = APPROVAL ( #1, 'UNSPECIFIED' ) ;
#5 = ORIENTED_EDGE ( 'NONE', *, *, #84, .T. ) ;
#6 = APPROVAL ( #73, 'UNSPECIFIED' ) ;
#7 = CLOSED_SHELL ( 'NONE', ( #155, #199, #192 ) ) ;
#8 = AXIS2_PLACEMENT_3D ( 'NONE', #52, #175, #145 ) ;
#9 = EDGE_LOOP ( 'NONE', ( #78 ) ) ;
#10 = EDGE_LOOP ( 'NONE', ( #98 ) ) ;
#11 = CONICAL_SURFACE ( 'NONE', #157, 0.9749999999999954259, 1.047197551196592746 ) ;
#12 = CARTESIAN_POINT ( 'NONE',  ( 3.142333204958819389E-14, 7.311328940476503837E-33, 8.999999999999998224 ) ) ;
#13 = CARTESIAN_POINT ( 'NONE',  ( 3.142333204958819389E-14, 0.9749999999999943157, 8.999999999999998224 ) ) ;
#14 = APPLICATION_CONTEXT ( 'configuration controlled 3d designs of mechanical parts and assemblies' ) ;
#15 = DIRECTION ( 'NONE',  ( -3.491481338843133355E-15, 1.224646799147353207E-16, -1.000000000000000000 ) ) ;
#16 = DIRECTION ( 'NONE',  ( 3.950625526948194478E-31, 1.000000000000000000, 1.112002228190266129E-16 ) ) ;
#17 = CARTESIAN_POINT ( 'NONE',  ( 0.0000000000000000000, 0.0000000000000000000, 0.0000000000000000000 ) ) ;
#18 = APPLICATION_PROTOCOL_DEFINITION ( 'international standard', 'config_control_design', 1994, #14 ) ;
#19 =( GEOMETRIC_REPRESENTATION_CONTEXT ( 3 ) GLOBAL_UNCERTAINTY_ASSIGNED_CONTEXT ( ( #128 ) ) GLOBAL_UNIT_ASSIGNED_CONTEXT ( ( #49, #34, #146 ) ) REPRESENTATION_CONTEXT ( 'NONE', 'WORKASPACE' ) );
#20 = PERSON_AND_ORGANIZATION_ROLE ( 'creator' ) ;
#21 = PRODUCT_DEFINITION ( 'UNKNOWN', '', #131, #57 ) ;
#22 = DATE_TIME_ROLE ( 'creation_date' ) ;
#23 = ORIENTED_EDGE ( 'NONE', *, *, #187, .T. ) ;
#24 = ADVANCED_BREP_SHAPE_REPRESENTATION ( '42539', ( #116, #42, #8 ), #19 ) ;
#25 = SECURITY_CLASSIFICATION ( '', '', #149 ) ;
#26 = CARTESIAN_POINT ( 'NONE',  ( 1.319779946082704535E-13, -4.629164900776995227E-15, 37.79999999999999716 ) ) ;
#27 = ADVANCED_FACE ( 'NONE', ( #47, #28 ), #172, .T. ) ;
#28 = FACE_BOUND ( 'NONE', #94, .T. ) ;
#29 = ORIENTED_EDGE ( 'NONE', *, *, #177, .F. ) ;
#30 = MECHANICAL_CONTEXT ( 'NONE', #14, 'mechanical' ) ;
#31 = DIRECTION ( 'NONE',  ( 0.0000000000000000000, 1.000000000000000000, 0.0000000000000000000 ) ) ;
#32 = CALENDAR_DATE ( 2021, 6, 10 ) ;
#33 = DIRECTION ( 'NONE',  ( 0.0000000000000000000, 1.000000000000000000, 0.0000000000000000000 ) ) ;
#34 =( NAMED_UNIT ( * ) PLANE_ANGLE_UNIT ( ) SI_UNIT ( $, .RADIAN. ) );
#35 = AXIS2_PLACEMENT_3D ( 'NONE', #126, #158, #156 ) ;
#36 = APPROVAL_PERSON_ORGANIZATION ( #89, #4, #91 ) ;
#37 = PERSON_AND_ORGANIZATION ( #65, #165 ) ;
#38 = CC_DESIGN_PERSON_AND_ORGANIZATION_ASSIGNMENT ( #3, #180, ( #25 ) ) ;
#39 = PERSON_AND_ORGANIZATION ( #65, #165 ) ;
#40 = PERSON_AND_ORGANIZATION_ROLE ( 'creator' ) ;
#41 = APPROVAL_PERSON_ORGANIZATION ( #37, #6, #55 ) ;
#42 = MANIFOLD_SOLID_BREP ( 'Corps-Déplacer/Copier1[2]', #7 ) ;
#43 = FACE_OUTER_BOUND ( 'NONE', #9, .T. ) ;
#44 = APPLICATION_CONTEXT ( 'configuration controlled 3d designs of mechanical parts and assemblies' ) ;
#45 = CC_DESIGN_PERSON_AND_ORGANIZATION_ASSIGNMENT ( #167, #20, ( #21 ) ) ;
#46 = ORIENTED_EDGE ( 'NONE', *, *, #163, .T. ) ;
#47 = FACE_OUTER_BOUND ( 'NONE', #168, .T. ) ;
#48 = PLANE ( 'NONE',  #108 ) ;
#49 =( LENGTH_UNIT ( ) NAMED_UNIT ( * ) SI_UNIT ( .MILLI., .METRE. ) );
#50 = VERTEX_POINT ( 'NONE', #81 ) ;
#51 = LOCAL_TIME ( 10, 25, 2.000000000000000000, #53 ) ;
#52 = CARTESIAN_POINT ( 'NONE',  ( 0.0000000000000000000, 0.0000000000000000000, 0.0000000000000000000 ) ) ;
#53 = COORDINATED_UNIVERSAL_TIME_OFFSET ( 1, 0, .AHEAD. ) ;
#54 = CIRCLE ( 'NONE', #87, 0.9749999999999954259 ) ;
#55 = APPROVAL_ROLE ( '' ) ;
#56 = COORDINATED_UNIVERSAL_TIME_OFFSET ( 1, 0, .AHEAD. ) ;
#57 = DESIGN_CONTEXT ( 'detailed design', #44, 'design' ) ;
#58 = CC_DESIGN_SECURITY_CLASSIFICATION ( #25, ( #131 ) ) ;
#59 = ORIENTED_EDGE ( 'NONE', *, *, #169, .F. ) ;
#60 = CYLINDRICAL_SURFACE ( 'NONE', #66, 0.9749999999999954259 ) ;
#61 = ADVANCED_FACE ( 'NONE', ( #159, #183 ), #60, .T. ) ;
#62 = CIRCLE ( 'NONE', #111, 0.9749999999999954259 ) ;
#63 = DIRECTION ( 'NONE',  ( -3.491481338843133355E-15, 1.224646799147353207E-16, -1.000000000000000000 ) ) ;
#64 = EDGE_LOOP ( 'NONE', ( #29 ) ) ;
#65 = PERSON ( 'UNSPECIFIED', 'UNSPECIFIED', 'UNSPECIFIED', ('UNSPECIFIED'), ('UNSPECIFIED'), ('UNSPECIFIED') ) ;
#66 = AXIS2_PLACEMENT_3D ( 'NONE', #114, #142, #196 ) ;
#67 = APPLICATION_PROTOCOL_DEFINITION ( 'international standard', 'config_control_design', 1994, #44 ) ;
#68 = CYLINDRICAL_SURFACE ( 'NONE', #109, 0.9749999999999954259 ) ;
#69 = CC_DESIGN_PERSON_AND_ORGANIZATION_ASSIGNMENT ( #39, #40, ( #131 ) ) ;
#70 = VERTEX_POINT ( 'NONE', #164 ) ;
#71 = CARTESIAN_POINT ( 'NONE',  ( 1.965412498580360063E-15, -6.893739051711940676E-17, 0.5629165124598888292 ) ) ;
#72 = APPROVAL_DATE_TIME ( #92, #4 ) ;
#73 = APPROVAL_STATUS ( 'not_yet_approved' ) ;
#74 = CC_DESIGN_APPROVAL ( #106, ( #21 ) ) ;
#75 = CC_DESIGN_PERSON_AND_ORGANIZATION_ASSIGNMENT ( #90, #107, ( #131 ) ) ;
#76 = EDGE_LOOP ( 'NONE', ( #46 ) ) ;
#77 = CARTESIAN_POINT ( 'NONE',  ( 1.326762908760390423E-13, 5.811569157814592859E-33, 38.00000000000000000 ) ) ;
#78 = ORIENTED_EDGE ( 'NONE', *, *, #177, .T. ) ;
#79 = PERSON_AND_ORGANIZATION ( #65, #165 ) ;
#80 = CIRCLE ( 'NONE', #191, 0.9749999999999954259 ) ;
#81 = CARTESIAN_POINT ( 'NONE',  ( 1.319779946082704535E-13, 0.9749999999999906519, 37.79999999999999716 ) ) ;
#82 = CIRCLE ( 'NONE', #148, 0.7749999999999952482 ) ;
#83 = DIRECTION ( 'NONE',  ( 4.275831445896958607E-31, 1.000000000000000000, 1.224646799147352961E-16 ) ) ;
#84 = EDGE_CURVE ( 'NONE', #50, #50, #95, .T. ) ;
#85 = DIRECTION ( 'NONE',  ( -3.491481338843133355E-15, 1.224646799147353207E-16, -1.000000000000000000 ) ) ;
#86 = PRODUCT_RELATED_PRODUCT_CATEGORY ( 'detail', '', ( #193 ) ) ;
#87 = AXIS2_PLACEMENT_3D ( 'NONE', #139, #63, #182 ) ;
#88 = LOCAL_TIME ( 10, 25, 2.000000000000000000, #190 ) ;
#89 = PERSON_AND_ORGANIZATION ( #65, #165 ) ;
#90 = PERSON_AND_ORGANIZATION ( #65, #165 ) ;
#91 = APPROVAL_ROLE ( '' ) ;
#92 = DATE_AND_TIME ( #203, #2 ) ;
#93 = EDGE_LOOP ( 'NONE', ( #110 ) ) ;
#94 = EDGE_LOOP ( 'NONE', ( #23 ) ) ;
#95 = CIRCLE ( 'NONE', #198, 0.9749999999999953149 ) ;
#96 = DIRECTION ( 'NONE',  ( -3.950625526948194478E-31, -1.000000000000000000, -1.112002228190266129E-16 ) ) ;
#97 = DIRECTION ( 'NONE',  ( -3.491481338843133355E-15, 1.224646799147353207E-16, -1.000000000000000000 ) ) ;
#98 = ORIENTED_EDGE ( 'NONE', *, *, #169, .T. ) ;
#99 = PLANE ( 'NONE',  #123 ) ;
#100 = PLANE ( 'NONE',  #188 ) ;
#101 = CC_DESIGN_DATE_AND_TIME_ASSIGNMENT ( #105, #152, ( #25 ) ) ;
#102 = DATE_AND_TIME ( #32, #173 ) ;
#103 = CARTESIAN_POINT ( 'NONE',  ( 1.326762908760390423E-13, -4.653657836759941941E-15, 38.00000000000000000 ) ) ;
#104 = DATE_AND_TIME ( #150, #51 ) ;
#105 = DATE_AND_TIME ( #119, #88 ) ;
#106 = APPROVAL ( #143, 'UNSPECIFIED' ) ;
#107 = PERSON_AND_ORGANIZATION_ROLE ( 'design_supplier' ) ;
#108 = AXIS2_PLACEMENT_3D ( 'NONE', #77, #115, #174 ) ;
#109 = AXIS2_PLACEMENT_3D ( 'NONE', #17, #85, #83 ) ;
#110 = ORIENTED_EDGE ( 'NONE', *, *, #163, .F. ) ;
#111 = AXIS2_PLACEMENT_3D ( 'NONE', #71, #15, #16 ) ;
#112 = CARTESIAN_POINT ( 'NONE',  ( 1.965412498580360063E-15, -6.893739051711940676E-17, 0.5629165124598888292 ) ) ;
#113 = DIRECTION ( 'NONE',  ( -3.491481338843133355E-15, 1.224646799147353207E-16, -1.000000000000000000 ) ) ;
#114 = CARTESIAN_POINT ( 'NONE',  ( 0.0000000000000000000, 0.0000000000000000000, 0.0000000000000000000 ) ) ;
#115 = DIRECTION ( 'NONE',  ( -3.491481338843133355E-15, 1.224646799147353207E-16, -1.000000000000000000 ) ) ;
#116 = MANIFOLD_SOLID_BREP ( 'Corps-Déplacer/Copier1[1]', #130 ) ;
#117 = APPROVAL_PERSON_ORGANIZATION ( #186, #106, #197 ) ;
#118 = ADVANCED_FACE ( 'NONE', ( #171 ), #48, .F. ) ;
#119 = CALENDAR_DATE ( 2021, 6, 10 ) ;
#120 = ORIENTED_EDGE ( 'NONE', *, *, #187, .F. ) ;
#121 = EDGE_LOOP ( 'NONE', ( #59 ) ) ;
#122 = DIRECTION ( 'NONE',  ( 3.491481338843133355E-15, -1.224646799147353207E-16, 1.000000000000000000 ) ) ;
#123 = AXIS2_PLACEMENT_3D ( 'NONE', #12, #122, #194 ) ;
#124 = PRODUCT_DEFINITION_SHAPE ( 'NONE', 'NONE',  #21 ) ;
#125 = CC_DESIGN_APPROVAL ( #6, ( #25 ) ) ;
#126 = CARTESIAN_POINT ( 'NONE',  ( 1.326762908760390423E-13, -4.653657836759941941E-15, 38.00000000000000000 ) ) ;
#127 = CC_DESIGN_PERSON_AND_ORGANIZATION_ASSIGNMENT ( #79, #133, ( #193 ) ) ;
#128 = UNCERTAINTY_MEASURE_WITH_UNIT (LENGTH_MEASURE( 1.000000000000000082E-05 ), #49, 'distance_accuracy_value', 'NONE');
#129 = EDGE_LOOP ( 'NONE', ( #120 ) ) ;
#130 = CLOSED_SHELL ( 'NONE', ( #140, #61, #27, #118 ) ) ;
#131 = PRODUCT_DEFINITION_FORMATION_WITH_SPECIFIED_SOURCE ( 'ANY', '', #193, .NOT_KNOWN. ) ;
#132 = DIRECTION ( 'NONE',  ( 3.491481338843133355E-15, -1.224646799147353207E-16, 1.000000000000000000 ) ) ;
#133 = PERSON_AND_ORGANIZATION_ROLE ( 'design_owner' ) ;
#134 = VERTEX_POINT ( 'NONE', #201 ) ;
#135 = FACE_OUTER_BOUND ( 'NONE', #10, .T. ) ;
#136 = CC_DESIGN_DATE_AND_TIME_ASSIGNMENT ( #104, #22, ( #21 ) ) ;
#137 = APPROVAL_DATE_TIME ( #151, #6 ) ;
#138 = CALENDAR_DATE ( 2021, 6, 10 ) ;
#139 = CARTESIAN_POINT ( 'NONE',  ( 3.142333204958819389E-14, -1.102182119232617517E-15, 8.999999999999998224 ) ) ;
#140 = ADVANCED_FACE ( 'NONE', ( #141 ), #99, .F. ) ;
#141 = FACE_OUTER_BOUND ( 'NONE', #76, .T. ) ;
#142 = DIRECTION ( 'NONE',  ( -3.491481338843133355E-15, 1.224646799147353207E-16, -1.000000000000000000 ) ) ;
#143 = APPROVAL_STATUS ( 'not_yet_approved' ) ;
#144 = CC_DESIGN_APPROVAL ( #4, ( #131 ) ) ;
#145 = DIRECTION ( 'NONE',  ( 1.000000000000000000, 0.0000000000000000000, 0.0000000000000000000 ) ) ;
#146 =( NAMED_UNIT ( * ) SI_UNIT ( $, .STERADIAN. ) SOLID_ANGLE_UNIT ( ) );
#147 = FACE_OUTER_BOUND ( 'NONE', #64, .T. ) ;
#148 = AXIS2_PLACEMENT_3D ( 'NONE', #103, #200, #31 ) ;
#149 = SECURITY_CLASSIFICATION_LEVEL ( 'unclassified' ) ;
#150 = CALENDAR_DATE ( 2021, 6, 10 ) ;
#151 = DATE_AND_TIME ( #138, #154 ) ;
#152 = DATE_TIME_ROLE ( 'classification_date' ) ;
#153 = EDGE_LOOP ( 'NONE', ( #5 ) ) ;
#154 = LOCAL_TIME ( 10, 25, 2.000000000000000000, #166 ) ;
#155 = ADVANCED_FACE ( 'NONE', ( #43 ), #11, .T. ) ;
#156 = DIRECTION ( 'NONE',  ( 0.0000000000000000000, 1.000000000000000000, 0.0000000000000000000 ) ) ;
#157 = AXIS2_PLACEMENT_3D ( 'NONE', #112, #170, #96 ) ;
#158 = DIRECTION ( 'NONE',  ( -3.491481338843133355E-15, 1.224646799147353207E-16, -1.000000000000000000 ) ) ;
#159 = FACE_OUTER_BOUND ( 'NONE', #93, .T. ) ;
#160 = DIRECTION ( 'NONE',  ( -4.275831445896958607E-31, -1.000000000000000000, -1.224646799147353207E-16 ) ) ;
#161 = APPROVAL_DATE_TIME ( #102, #106 ) ;
#162 = CARTESIAN_POINT ( 'NONE',  ( 3.142333204958819389E-14, 7.311328940476503837E-33, 8.999999999999998224 ) ) ;
#163 = EDGE_CURVE ( 'NONE', #178, #178, #54, .T. ) ;
#164 = CARTESIAN_POINT ( 'NONE',  ( 1.965412498580360457E-15, 0.9749999999999953149, 0.5629165124598889403 ) ) ;
#165 = ORGANIZATION ( 'UNSPECIFIED', 'UNSPECIFIED', '' ) ;
#166 = COORDINATED_UNIVERSAL_TIME_OFFSET ( 1, 0, .AHEAD. ) ;
#167 = PERSON_AND_ORGANIZATION ( #65, #165 ) ;
#168 = EDGE_LOOP ( 'NONE', ( #181 ) ) ;
#169 = EDGE_CURVE ( 'NONE', #134, #134, #80, .T. ) ;
#170 = DIRECTION ( 'NONE',  ( 3.491481338843133355E-15, -1.224646799147353207E-16, 1.000000000000000000 ) ) ;
#171 = FACE_OUTER_BOUND ( 'NONE', #129, .T. ) ;
#172 = CONICAL_SURFACE ( 'NONE', #35, 0.7749999999999952482, 0.7853981633974516097 ) ;
#173 = LOCAL_TIME ( 10, 25, 2.000000000000000000, #176 ) ;
#174 = DIRECTION ( 'NONE',  ( 4.275831445896958607E-31, 1.000000000000000000, 1.224646799147353207E-16 ) ) ;
#175 = DIRECTION ( 'NONE',  ( 0.0000000000000000000, 0.0000000000000000000, 1.000000000000000000 ) ) ;
#176 = COORDINATED_UNIVERSAL_TIME_OFFSET ( 1, 0, .AHEAD. ) ;
#177 = EDGE_CURVE ( 'NONE', #70, #70, #62, .T. ) ;
#178 = VERTEX_POINT ( 'NONE', #13 ) ;
#179 = SHAPE_DEFINITION_REPRESENTATION ( #124, #24 ) ;
#180 = PERSON_AND_ORGANIZATION_ROLE ( 'classification_officer' ) ;
#181 = ORIENTED_EDGE ( 'NONE', *, *, #84, .F. ) ;
#182 = DIRECTION ( 'NONE',  ( 0.0000000000000000000, 1.000000000000000000, 0.0000000000000000000 ) ) ;
#183 = FACE_OUTER_BOUND ( 'NONE', #153, .T. ) ;
#184 = DIRECTION ( 'NONE',  ( 0.0000000000000000000, 1.000000000000000000, 0.0000000000000000000 ) ) ;
#185 = VERTEX_POINT ( 'NONE', #189 ) ;
#186 = PERSON_AND_ORGANIZATION ( #65, #165 ) ;
#187 = EDGE_CURVE ( 'NONE', #185, #185, #82, .T. ) ;
#188 = AXIS2_PLACEMENT_3D ( 'NONE', #162, #132, #160 ) ;
#189 = CARTESIAN_POINT ( 'NONE',  ( 1.326762908760390423E-13, 0.7749999999999905853, 38.00000000000000000 ) ) ;
#190 = COORDINATED_UNIVERSAL_TIME_OFFSET ( 1, 0, .AHEAD. ) ;
#191 = AXIS2_PLACEMENT_3D ( 'NONE', #195, #97, #33 ) ;
#192 = ADVANCED_FACE ( 'NONE', ( #202 ), #100, .T. ) ;
#193 = PRODUCT ( '42539', '42539', '', ( #30 ) ) ;
#194 = DIRECTION ( 'NONE',  ( -4.275831445896958607E-31, -1.000000000000000000, -1.224646799147353207E-16 ) ) ;
#195 = CARTESIAN_POINT ( 'NONE',  ( 3.142333204958819389E-14, -1.102182119232617517E-15, 8.999999999999998224 ) ) ;
#196 = DIRECTION ( 'NONE',  ( 4.275831445896958607E-31, 1.000000000000000000, 1.224646799147352961E-16 ) ) ;
#197 = APPROVAL_ROLE ( '' ) ;
#198 = AXIS2_PLACEMENT_3D ( 'NONE', #26, #113, #184 ) ;
#199 = ADVANCED_FACE ( 'NONE', ( #147, #135 ), #68, .T. ) ;
#200 = DIRECTION ( 'NONE',  ( -3.491481338843133355E-15, 1.224646799147353207E-16, -1.000000000000000000 ) ) ;
#201 = CARTESIAN_POINT ( 'NONE',  ( 3.142333204958819389E-14, 0.9749999999999943157, 8.999999999999998224 ) ) ;
#202 = FACE_OUTER_BOUND ( 'NONE', #121, .T. ) ;
#203 = CALENDAR_DATE ( 2021, 6, 10 ) ;
ENDSEC;
END-ISO-10303-21;
