ISO-10303-21;
HEADER;
FILE_DESCRIPTION (( 'STEP AP203' ),
    '1' );
FILE_NAME ('42538.step',
    '2021-10-06T08:25:01',
    ( '' ),
    ( '' ),
    'SwSTEP 2.0',
    'SolidWorks 2019',
    '' );
FILE_SCHEMA (( 'CONFIG_CONTROL_DESIGN' ));
ENDSEC;

DATA;
#1 = ORIENTED_EDGE ( 'NONE', *, *, #182, .T. ) ;
#2 = DIRECTION ( 'NONE',  ( -3.491481338843133355E-15, 1.224646799147353207E-16, -1.000000000000000000 ) ) ;
#3 = DATE_AND_TIME ( #73, #77 ) ;
#4 = DATE_AND_TIME ( #54, #149 ) ;
#5 = CC_DESIGN_PERSON_AND_ORGANIZATION_ASSIGNMENT ( #22, #120, ( #118 ) ) ;
#6 = AXIS2_PLACEMENT_3D ( 'NONE', #173, #99, #34 ) ;
#7 = DATE_TIME_ROLE ( 'creation_date' ) ;
#8 = DATE_AND_TIME ( #181, #167 ) ;
#9 = CC_DESIGN_APPROVAL ( #119, ( #158 ) ) ;
#10 = DIRECTION ( 'NONE',  ( 0.0000000000000000000, 1.000000000000000000, 0.0000000000000000000 ) ) ;
#11 = ADVANCED_FACE ( 'NONE', ( #64, #131 ), #19, .T. ) ;
#12 = ORIENTED_EDGE ( 'NONE', *, *, #40, .T. ) ;
#13 = APPROVAL_ROLE ( '' ) ;
#14 = CALENDAR_DATE ( 2021, 6, 10 ) ;
#15 = VERTEX_POINT ( 'NONE', #140 ) ;
#16 = FACE_OUTER_BOUND ( 'NONE', #46, .T. ) ;
#17 = DIRECTION ( 'NONE',  ( -3.491481338843133355E-15, 1.224646799147353207E-16, -1.000000000000000000 ) ) ;
#18 = APPROVAL_ROLE ( '' ) ;
#19 = CONICAL_SURFACE ( 'NONE', #67, 0.7250000000000000888, 0.7853981633974512766 ) ;
#20 = FACE_OUTER_BOUND ( 'NONE', #58, .T. ) ;
#21 = DATE_TIME_ROLE ( 'classification_date' ) ;
#22 = PERSON_AND_ORGANIZATION ( #38, #108 ) ;
#23 = ADVANCED_FACE ( 'NONE', ( #20, #49 ), #68, .T. ) ;
#24 = DIRECTION ( 'NONE',  ( 0.0000000000000000000, 1.000000000000000000, 0.0000000000000000000 ) ) ;
#25 = CARTESIAN_POINT ( 'NONE',  ( 1.864622114037777768E-15, 0.9249999999999953815, 0.5340489990004074761 ) ) ;
#26 = VERTEX_POINT ( 'NONE', #125 ) ;
#27 = PRODUCT_RELATED_PRODUCT_CATEGORY ( 'detail', '', ( #148 ) ) ;
#28 = DIRECTION ( 'NONE',  ( 4.275831445896958607E-31, 1.000000000000000000, 1.224646799147352961E-16 ) ) ;
#29 = ORIENTED_EDGE ( 'NONE', *, *, #198, .F. ) ;
#30 = DIRECTION ( 'NONE',  ( -3.491481338843133355E-15, 1.224646799147353207E-16, -1.000000000000000000 ) ) ;
#31 = AXIS2_PLACEMENT_3D ( 'NONE', #84, #102, #143 ) ;
#32 = DIRECTION ( 'NONE',  ( 0.0000000000000000000, 1.000000000000000000, 0.0000000000000000000 ) ) ;
#33 = ADVANCED_FACE ( 'NONE', ( #190 ), #175, .T. ) ;
#34 = DIRECTION ( 'NONE',  ( 4.275831445896958607E-31, 1.000000000000000000, 1.224646799147353454E-16 ) ) ;
#35 = MANIFOLD_SOLID_BREP ( 'Corps-Déplacer/Copier1[2]', #93 ) ;
#36 = CARTESIAN_POINT ( 'NONE',  ( 1.326762908760390423E-13, -4.653657836759941941E-15, 38.00000000000000000 ) ) ;
#37 = APPROVAL_DATE_TIME ( #8, #109 ) ;
#38 = PERSON ( 'UNSPECIFIED', 'UNSPECIFIED', 'UNSPECIFIED', ('UNSPECIFIED'), ('UNSPECIFIED'), ('UNSPECIFIED') ) ;
#39 = SHAPE_DEFINITION_REPRESENTATION ( #66, #75 ) ;
#40 = EDGE_CURVE ( 'NONE', #94, #94, #184, .T. ) ;
#41 = EDGE_LOOP ( 'NONE', ( #29 ) ) ;
#42 = DIRECTION ( 'NONE',  ( 3.491481338843133355E-15, -1.224646799147353207E-16, 1.000000000000000000 ) ) ;
#43 = AXIS2_PLACEMENT_3D ( 'NONE', #60, #123, #10 ) ;
#44 = DIRECTION ( 'NONE',  ( -3.491481338843133355E-15, 1.224646799147353207E-16, -1.000000000000000000 ) ) ;
#45 = DIRECTION ( 'NONE',  ( -3.491481338843133355E-15, 1.224646799147353207E-16, -1.000000000000000000 ) ) ;
#46 = EDGE_LOOP ( 'NONE', ( #98 ) ) ;
#47 = EDGE_CURVE ( 'NONE', #199, #199, #137, .T. ) ;
#48 = APPLICATION_CONTEXT ( 'configuration controlled 3d designs of mechanical parts and assemblies' ) ;
#49 = FACE_OUTER_BOUND ( 'NONE', #114, .T. ) ;
#50 = CIRCLE ( 'NONE', #196, 0.9249999999999964917 ) ;
#51 = CLOSED_SHELL ( 'NONE', ( #193, #23, #11, #72 ) ) ;
#52 = FACE_OUTER_BOUND ( 'NONE', #41, .T. ) ;
#53 = CARTESIAN_POINT ( 'NONE',  ( 0.0000000000000000000, 0.0000000000000000000, 0.0000000000000000000 ) ) ;
#54 = CALENDAR_DATE ( 2021, 6, 10 ) ;
#55 = APPROVAL_PERSON_ORGANIZATION ( #117, #109, #18 ) ;
#56 = APPROVAL_PERSON_ORGANIZATION ( #132, #87, #86 ) ;
#57 = AXIS2_PLACEMENT_3D ( 'NONE', #80, #42, #59 ) ;
#58 = EDGE_LOOP ( 'NONE', ( #126 ) ) ;
#59 = DIRECTION ( 'NONE',  ( -4.275831445896958607E-31, -1.000000000000000000, -1.224646799147353207E-16 ) ) ;
#60 = CARTESIAN_POINT ( 'NONE',  ( 1.319779946082704535E-13, -4.629164900776995227E-15, 37.79999999999999716 ) ) ;
#61 = PERSON_AND_ORGANIZATION_ROLE ( 'creator' ) ;
#62 = DIRECTION ( 'NONE',  ( 1.000000000000000000, 0.0000000000000000000, 0.0000000000000000000 ) ) ;
#63 = ADVANCED_FACE ( 'NONE', ( #16 ), #191, .T. ) ;
#64 = FACE_OUTER_BOUND ( 'NONE', #145, .T. ) ;
#65 = ORIENTED_EDGE ( 'NONE', *, *, #142, .T. ) ;
#66 = PRODUCT_DEFINITION_SHAPE ( 'NONE', 'NONE',  #158 ) ;
#67 = AXIS2_PLACEMENT_3D ( 'NONE', #36, #30, #115 ) ;
#68 = CYLINDRICAL_SURFACE ( 'NONE', #6, 0.9249999999999982681 ) ;
#69 = APPROVAL_DATE_TIME ( #3, #87 ) ;
#70 = EDGE_LOOP ( 'NONE', ( #185 ) ) ;
#71 = CALENDAR_DATE ( 2021, 6, 10 ) ;
#72 = ADVANCED_FACE ( 'NONE', ( #52 ), #178, .F. ) ;
#73 = CALENDAR_DATE ( 2021, 6, 10 ) ;
#74 = CIRCLE ( 'NONE', #166, 0.7250000000000000888 ) ;
#75 = ADVANCED_BREP_SHAPE_REPRESENTATION ( '42538', ( #176, #35, #105 ), #174 ) ;
#76 = DIRECTION ( 'NONE',  ( 0.0000000000000000000, 1.000000000000000000, 0.0000000000000000000 ) ) ;
#77 = LOCAL_TIME ( 10, 25, 1.000000000000000000, #146 ) ;
#78 = COORDINATED_UNIVERSAL_TIME_OFFSET ( 1, 0, .AHEAD. ) ;
#79 = PERSON_AND_ORGANIZATION ( #38, #108 ) ;
#80 = CARTESIAN_POINT ( 'NONE',  ( 3.142333204958820020E-14, 6.936388994811049014E-33, 9.000000000000000000 ) ) ;
#81 = CC_DESIGN_PERSON_AND_ORGANIZATION_ASSIGNMENT ( #107, #90, ( #118 ) ) ;
#82 = CC_DESIGN_APPROVAL ( #109, ( #118 ) ) ;
#83 = EDGE_LOOP ( 'NONE', ( #12 ) ) ;
#84 = CARTESIAN_POINT ( 'NONE',  ( 1.864622114037777374E-15, -6.540213972136969075E-17, 0.5340489990004073650 ) ) ;
#85 = FACE_OUTER_BOUND ( 'NONE', #187, .T. ) ;
#86 = APPROVAL_ROLE ( '' ) ;
#87 = APPROVAL ( #89, 'UNSPECIFIED' ) ;
#88 = DIRECTION ( 'NONE',  ( 4.275831445896958607E-31, 1.000000000000000000, 1.224646799147353207E-16 ) ) ;
#89 = APPROVAL_STATUS ( 'not_yet_approved' ) ;
#90 = PERSON_AND_ORGANIZATION_ROLE ( 'design_supplier' ) ;
#91 = CC_DESIGN_DATE_AND_TIME_ASSIGNMENT ( #4, #7, ( #158 ) ) ;
#92 = APPROVAL_PERSON_ORGANIZATION ( #113, #119, #13 ) ;
#93 = CLOSED_SHELL ( 'NONE', ( #63, #106, #33 ) ) ;
#94 = VERTEX_POINT ( 'NONE', #188 ) ;
#95 = CARTESIAN_POINT ( 'NONE',  ( 3.142333204958820020E-14, -1.102182119232617714E-15, 9.000000000000000000 ) ) ;
#96 = MECHANICAL_CONTEXT ( 'NONE', #202, 'mechanical' ) ;
#97 =( NAMED_UNIT ( * ) PLANE_ANGLE_UNIT ( ) SI_UNIT ( $, .RADIAN. ) );
#98 = ORIENTED_EDGE ( 'NONE', *, *, #47, .T. ) ;
#99 = DIRECTION ( 'NONE',  ( -3.491481338843133355E-15, 1.224646799147353207E-16, -1.000000000000000000 ) ) ;
#100 = CIRCLE ( 'NONE', #43, 0.9250000000000000444 ) ;
#101 = DIRECTION ( 'NONE',  ( 4.164172852729178579E-31, 1.000000000000000000, 1.172110456741091498E-16 ) ) ;
#102 = DIRECTION ( 'NONE',  ( 3.491481338843133355E-15, -1.224646799147353207E-16, 1.000000000000000000 ) ) ;
#103 = CARTESIAN_POINT ( 'NONE',  ( 3.142333204958820020E-14, -1.102182119232617714E-15, 9.000000000000000000 ) ) ;
#104 = APPROVAL_STATUS ( 'not_yet_approved' ) ;
#105 = AXIS2_PLACEMENT_3D ( 'NONE', #186, #154, #62 ) ;
#106 = ADVANCED_FACE ( 'NONE', ( #85, #144 ), #130, .T. ) ;
#107 = PERSON_AND_ORGANIZATION ( #38, #108 ) ;
#108 = ORGANIZATION ( 'UNSPECIFIED', 'UNSPECIFIED', '' ) ;
#109 = APPROVAL ( #104, 'UNSPECIFIED' ) ;
#110 = ORIENTED_EDGE ( 'NONE', *, *, #47, .F. ) ;
#111 = AXIS2_PLACEMENT_3D ( 'NONE', #53, #161, #28 ) ;
#112 =( LENGTH_UNIT ( ) NAMED_UNIT ( * ) SI_UNIT ( .MILLI., .METRE. ) );
#113 = PERSON_AND_ORGANIZATION ( #38, #108 ) ;
#114 = EDGE_LOOP ( 'NONE', ( #1 ) ) ;
#115 = DIRECTION ( 'NONE',  ( 0.0000000000000000000, 1.000000000000000000, 0.0000000000000000000 ) ) ;
#116 = CARTESIAN_POINT ( 'NONE',  ( 3.142333204958820020E-14, 6.936388994811049014E-33, 9.000000000000000000 ) ) ;
#117 = PERSON_AND_ORGANIZATION ( #38, #108 ) ;
#118 = PRODUCT_DEFINITION_FORMATION_WITH_SPECIFIED_SOURCE ( 'ANY', '', #148, .NOT_KNOWN. ) ;
#119 = APPROVAL ( #153, 'UNSPECIFIED' ) ;
#120 = PERSON_AND_ORGANIZATION_ROLE ( 'creator' ) ;
#121 = CC_DESIGN_PERSON_AND_ORGANIZATION_ASSIGNMENT ( #79, #61, ( #158 ) ) ;
#122 = AXIS2_PLACEMENT_3D ( 'NONE', #128, #2, #101 ) ;
#123 = DIRECTION ( 'NONE',  ( -3.491481338843133355E-15, 1.224646799147353207E-16, -1.000000000000000000 ) ) ;
#124 = PLANE ( 'NONE',  #57 ) ;
#125 = CARTESIAN_POINT ( 'NONE',  ( 3.142333204958820020E-14, 0.9249999999999953815, 9.000000000000000000 ) ) ;
#126 = ORIENTED_EDGE ( 'NONE', *, *, #142, .F. ) ;
#127 = LOCAL_TIME ( 10, 25, 1.000000000000000000, #78 ) ;
#128 = CARTESIAN_POINT ( 'NONE',  ( 1.864622114037777374E-15, -6.540213972136969075E-17, 0.5340489990004073650 ) ) ;
#129 = DESIGN_CONTEXT ( 'detailed design', #48, 'design' ) ;
#130 = CYLINDRICAL_SURFACE ( 'NONE', #111, 0.9249999999999959366 ) ;
#131 = FACE_BOUND ( 'NONE', #197, .T. ) ;
#132 = PERSON_AND_ORGANIZATION ( #38, #108 ) ;
#133 = SECURITY_CLASSIFICATION_LEVEL ( 'unclassified' ) ;
#134 = AXIS2_PLACEMENT_3D ( 'NONE', #103, #177, #32 ) ;
#135 = CC_DESIGN_DATE_AND_TIME_ASSIGNMENT ( #162, #21, ( #168 ) ) ;
#136 = VERTEX_POINT ( 'NONE', #201 ) ;
#137 = CIRCLE ( 'NONE', #122, 0.9249999999999954925 ) ;
#138 = APPLICATION_PROTOCOL_DEFINITION ( 'international standard', 'config_control_design', 1994, #202 ) ;
#139 = DATE_AND_TIME ( #14, #127 ) ;
#140 = CARTESIAN_POINT ( 'NONE',  ( 1.326762908760390423E-13, 0.7249999999999954259, 38.00000000000000000 ) ) ;
#141 = EDGE_LOOP ( 'NONE', ( #65 ) ) ;
#142 = EDGE_CURVE ( 'NONE', #26, #26, #50, .T. ) ;
#143 = DIRECTION ( 'NONE',  ( -4.164172852729178579E-31, -1.000000000000000000, -1.172110456741091498E-16 ) ) ;
#144 = FACE_OUTER_BOUND ( 'NONE', #83, .T. ) ;
#145 = EDGE_LOOP ( 'NONE', ( #203 ) ) ;
#146 = COORDINATED_UNIVERSAL_TIME_OFFSET ( 1, 0, .AHEAD. ) ;
#147 = PERSON_AND_ORGANIZATION_ROLE ( 'classification_officer' ) ;
#148 = PRODUCT ( '42538', '42538', '', ( #96 ) ) ;
#149 = LOCAL_TIME ( 10, 25, 1.000000000000000000, #189 ) ;
#150 = CC_DESIGN_PERSON_AND_ORGANIZATION_ASSIGNMENT ( #171, #170, ( #148 ) ) ;
#151 = CARTESIAN_POINT ( 'NONE',  ( 1.326762908760390423E-13, -4.653657836759941941E-15, 38.00000000000000000 ) ) ;
#152 = ORIENTED_EDGE ( 'NONE', *, *, #198, .T. ) ;
#153 = APPROVAL_STATUS ( 'not_yet_approved' ) ;
#154 = DIRECTION ( 'NONE',  ( 0.0000000000000000000, 0.0000000000000000000, 1.000000000000000000 ) ) ;
#155 = APPLICATION_PROTOCOL_DEFINITION ( 'international standard', 'config_control_design', 1994, #48 ) ;
#156 = CC_DESIGN_APPROVAL ( #87, ( #168 ) ) ;
#157 = DIRECTION ( 'NONE',  ( -4.275831445896958607E-31, -1.000000000000000000, -1.224646799147353207E-16 ) ) ;
#158 = PRODUCT_DEFINITION ( 'UNKNOWN', '', #118, #129 ) ;
#159 = UNCERTAINTY_MEASURE_WITH_UNIT (LENGTH_MEASURE( 1.000000000000000082E-05 ), #112, 'distance_accuracy_value', 'NONE');
#160 = CARTESIAN_POINT ( 'NONE',  ( 1.326762908760390423E-13, 5.436629212149164721E-33, 38.00000000000000000 ) ) ;
#161 = DIRECTION ( 'NONE',  ( -3.491481338843133355E-15, 1.224646799147353207E-16, -1.000000000000000000 ) ) ;
#162 = DATE_AND_TIME ( #71, #163 ) ;
#163 = LOCAL_TIME ( 10, 25, 1.000000000000000000, #165 ) ;
#164 = PERSON_AND_ORGANIZATION ( #38, #108 ) ;
#165 = COORDINATED_UNIVERSAL_TIME_OFFSET ( 1, 0, .AHEAD. ) ;
#166 = AXIS2_PLACEMENT_3D ( 'NONE', #151, #44, #24 ) ;
#167 = LOCAL_TIME ( 10, 25, 1.000000000000000000, #179 ) ;
#168 = SECURITY_CLASSIFICATION ( '', '', #133 ) ;
#169 = FACE_OUTER_BOUND ( 'NONE', #141, .T. ) ;
#170 = PERSON_AND_ORGANIZATION_ROLE ( 'design_owner' ) ;
#171 = PERSON_AND_ORGANIZATION ( #38, #108 ) ;
#172 = CC_DESIGN_PERSON_AND_ORGANIZATION_ASSIGNMENT ( #164, #147, ( #168 ) ) ;
#173 = CARTESIAN_POINT ( 'NONE',  ( 0.0000000000000000000, 0.0000000000000000000, 0.0000000000000000000 ) ) ;
#174 =( GEOMETRIC_REPRESENTATION_CONTEXT ( 3 ) GLOBAL_UNCERTAINTY_ASSIGNED_CONTEXT ( ( #159 ) ) GLOBAL_UNIT_ASSIGNED_CONTEXT ( ( #112, #97, #195 ) ) REPRESENTATION_CONTEXT ( 'NONE', 'WORKASPACE' ) );
#175 = PLANE ( 'NONE',  #180 ) ;
#176 = MANIFOLD_SOLID_BREP ( 'Corps-Déplacer/Copier1[1]', #51 ) ;
#177 = DIRECTION ( 'NONE',  ( -3.491481338843133355E-15, 1.224646799147353207E-16, -1.000000000000000000 ) ) ;
#178 = PLANE ( 'NONE',  #194 ) ;
#179 = COORDINATED_UNIVERSAL_TIME_OFFSET ( 1, 0, .AHEAD. ) ;
#180 = AXIS2_PLACEMENT_3D ( 'NONE', #116, #192, #157 ) ;
#181 = CALENDAR_DATE ( 2021, 6, 10 ) ;
#182 = EDGE_CURVE ( 'NONE', #136, #136, #100, .T. ) ;
#183 = CC_DESIGN_SECURITY_CLASSIFICATION ( #168, ( #118 ) ) ;
#184 = CIRCLE ( 'NONE', #134, 0.9249999999999964917 ) ;
#185 = ORIENTED_EDGE ( 'NONE', *, *, #40, .F. ) ;
#186 = CARTESIAN_POINT ( 'NONE',  ( 0.0000000000000000000, 0.0000000000000000000, 0.0000000000000000000 ) ) ;
#187 = EDGE_LOOP ( 'NONE', ( #110 ) ) ;
#188 = CARTESIAN_POINT ( 'NONE',  ( 3.142333204958820020E-14, 0.9249999999999953815, 9.000000000000000000 ) ) ;
#189 = COORDINATED_UNIVERSAL_TIME_OFFSET ( 1, 0, .AHEAD. ) ;
#190 = FACE_OUTER_BOUND ( 'NONE', #70, .T. ) ;
#191 = CONICAL_SURFACE ( 'NONE', #31, 0.9249999999999954925, 1.047197551196592746 ) ;
#192 = DIRECTION ( 'NONE',  ( 3.491481338843133355E-15, -1.224646799147353207E-16, 1.000000000000000000 ) ) ;
#193 = ADVANCED_FACE ( 'NONE', ( #169 ), #124, .F. ) ;
#194 = AXIS2_PLACEMENT_3D ( 'NONE', #160, #17, #88 ) ;
#195 =( NAMED_UNIT ( * ) SI_UNIT ( $, .STERADIAN. ) SOLID_ANGLE_UNIT ( ) );
#196 = AXIS2_PLACEMENT_3D ( 'NONE', #95, #45, #76 ) ;
#197 = EDGE_LOOP ( 'NONE', ( #152 ) ) ;
#198 = EDGE_CURVE ( 'NONE', #15, #15, #74, .T. ) ;
#199 = VERTEX_POINT ( 'NONE', #25 ) ;
#200 = APPROVAL_DATE_TIME ( #139, #119 ) ;
#201 = CARTESIAN_POINT ( 'NONE',  ( 1.319779946082704535E-13, 0.9249999999999953815, 37.79999999999999716 ) ) ;
#202 = APPLICATION_CONTEXT ( 'configuration controlled 3d designs of mechanical parts and assemblies' ) ;
#203 = ORIENTED_EDGE ( 'NONE', *, *, #182, .F. ) ;
ENDSEC;
END-ISO-10303-21;
