ISO-10303-21;
HEADER;
FILE_DESCRIPTION (( 'STEP AP203' ),
    '1' );
FILE_NAME ('42537.step',
    '2021-10-06T08:24:59',
    ( '' ),
    ( '' ),
    'SwSTEP 2.0',
    'SolidWorks 2019',
    '' );
FILE_SCHEMA (( 'CONFIG_CONTROL_DESIGN' ));
ENDSEC;

DATA;
#1 = EDGE_CURVE ( 'NONE', #30, #30, #6, .T. ) ;
#2 = PRODUCT_DEFINITION_FORMATION_WITH_SPECIFIED_SOURCE ( 'ANY', '', #150, .NOT_KNOWN. ) ;
#3 = EDGE_LOOP ( 'NONE', ( #20 ) ) ;
#4 = ORIENTED_EDGE ( 'NONE', *, *, #151, .T. ) ;
#5 = CC_DESIGN_PERSON_AND_ORGANIZATION_ASSIGNMENT ( #187, #64, ( #2 ) ) ;
#6 = CIRCLE ( 'NONE', #25, 0.8749999999999975575 ) ;
#7 = CARTESIAN_POINT ( 'NONE',  ( 3.142333204958820020E-14, 6.561449049145591454E-33, 9.000000000000000000 ) ) ;
#8 = DIRECTION ( 'NONE',  ( -3.491481338843133355E-15, 1.224646799147353207E-16, -1.000000000000000000 ) ) ;
#9 = DIRECTION ( 'NONE',  ( 0.0000000000000000000, 1.000000000000000000, 0.0000000000000000000 ) ) ;
#10 = DATE_AND_TIME ( #92, #127 ) ;
#11 = APPLICATION_CONTEXT ( 'configuration controlled 3d designs of mechanical parts and assemblies' ) ;
#12 = CC_DESIGN_APPROVAL ( #60, ( #130 ) ) ;
#13 = CARTESIAN_POINT ( 'NONE',  ( 3.142333204958820020E-14, 0.8749999999999964473, 9.000000000000000000 ) ) ;
#14 = ADVANCED_FACE ( 'NONE', ( #113 ), #89, .F. ) ;
#15 = PERSON_AND_ORGANIZATION_ROLE ( 'design_supplier' ) ;
#16 = APPROVAL_ROLE ( '' ) ;
#17 = ADVANCED_FACE ( 'NONE', ( #42, #167 ), #174, .T. ) ;
#18 = AXIS2_PLACEMENT_3D ( 'NONE', #73, #194, #55 ) ;
#19 = APPROVAL_DATE_TIME ( #34, #193 ) ;
#20 = ORIENTED_EDGE ( 'NONE', *, *, #51, .F. ) ;
#21 = AXIS2_PLACEMENT_3D ( 'NONE', #168, #133, #192 ) ;
#22 = FACE_OUTER_BOUND ( 'NONE', #50, .T. ) ;
#23 = DIRECTION ( 'NONE',  ( -3.491481338843133355E-15, 1.224646799147353207E-16, -1.000000000000000000 ) ) ;
#24 = CARTESIAN_POINT ( 'NONE',  ( 1.326762908760390423E-13, -4.653657836759941941E-15, 38.00000000000000000 ) ) ;
#25 = AXIS2_PLACEMENT_3D ( 'NONE', #72, #164, #135 ) ;
#26 = LOCAL_TIME ( 10, 24, 59.00000000000000000, #177 ) ;
#27 = CARTESIAN_POINT ( 'NONE',  ( 1.763831729495196460E-15, -6.186688892562003636E-17, 0.5051814855409263449 ) ) ;
#28 = CC_DESIGN_PERSON_AND_ORGANIZATION_ASSIGNMENT ( #172, #69, ( #84 ) ) ;
#29 = APPROVAL_ROLE ( '' ) ;
#30 = VERTEX_POINT ( 'NONE', #32 ) ;
#31 = MANIFOLD_SOLID_BREP ( 'Corps-Déplacer/Copier1[2]', #48 ) ;
#32 = CARTESIAN_POINT ( 'NONE',  ( 3.142333204958820020E-14, 0.8749999999999964473, 9.000000000000000000 ) ) ;
#33 = APPLICATION_PROTOCOL_DEFINITION ( 'international standard', 'config_control_design', 1994, #131 ) ;
#34 = DATE_AND_TIME ( #66, #78 ) ;
#35 = CALENDAR_DATE ( 2021, 6, 10 ) ;
#36 = AXIS2_PLACEMENT_3D ( 'NONE', #7, #74, #116 ) ;
#37 = CC_DESIGN_DATE_AND_TIME_ASSIGNMENT ( #10, #79, ( #130 ) ) ;
#38 = DIRECTION ( 'NONE',  ( -4.275831445896958607E-31, -1.000000000000000000, -1.224646799147353207E-16 ) ) ;
#39 = DIRECTION ( 'NONE',  ( 4.402125587170842448E-31, 1.000000000000000000, 1.239088197126295747E-16 ) ) ;
#40 = DIRECTION ( 'NONE',  ( -3.491481338843133355E-15, 1.224646799147353207E-16, -1.000000000000000000 ) ) ;
#41 = DIRECTION ( 'NONE',  ( -3.491481338843133355E-15, 1.224646799147353207E-16, -1.000000000000000000 ) ) ;
#42 = FACE_OUTER_BOUND ( 'NONE', #176, .T. ) ;
#43 = APPROVAL ( #202, 'UNSPECIFIED' ) ;
#44 = AXIS2_PLACEMENT_3D ( 'NONE', #58, #41, #102 ) ;
#45 = VERTEX_POINT ( 'NONE', #13 ) ;
#46 = MECHANICAL_CONTEXT ( 'NONE', #11, 'mechanical' ) ;
#47 = APPROVAL_DATE_TIME ( #152, #43 ) ;
#48 = CLOSED_SHELL ( 'NONE', ( #165, #123, #82 ) ) ;
#49 = PERSON_AND_ORGANIZATION ( #98, #90 ) ;
#50 = EDGE_LOOP ( 'NONE', ( #4 ) ) ;
#51 = EDGE_CURVE ( 'NONE', #141, #141, #156, .T. ) ;
#52 = UNCERTAINTY_MEASURE_WITH_UNIT (LENGTH_MEASURE( 1.000000000000000082E-05 ), #199, 'distance_accuracy_value', 'NONE');
#53 = EDGE_LOOP ( 'NONE', ( #111 ) ) ;
#54 = DIRECTION ( 'NONE',  ( -3.491481338843133355E-15, 1.224646799147353207E-16, -1.000000000000000000 ) ) ;
#55 = DIRECTION ( 'NONE',  ( 0.0000000000000000000, 1.000000000000000000, 0.0000000000000000000 ) ) ;
#56 = DIRECTION ( 'NONE',  ( 0.0000000000000000000, 1.000000000000000000, 0.0000000000000000000 ) ) ;
#57 = LOCAL_TIME ( 10, 24, 59.00000000000000000, #63 ) ;
#58 = CARTESIAN_POINT ( 'NONE',  ( 0.0000000000000000000, 0.0000000000000000000, 0.0000000000000000000 ) ) ;
#59 = EDGE_LOOP ( 'NONE', ( #85 ) ) ;
#60 = APPROVAL ( #142, 'UNSPECIFIED' ) ;
#61 = PERSON_AND_ORGANIZATION ( #98, #90 ) ;
#62 = CARTESIAN_POINT ( 'NONE',  ( 0.0000000000000000000, 0.0000000000000000000, 0.0000000000000000000 ) ) ;
#63 = COORDINATED_UNIVERSAL_TIME_OFFSET ( 1, 0, .AHEAD. ) ;
#64 = PERSON_AND_ORGANIZATION_ROLE ( 'creator' ) ;
#65 = CC_DESIGN_DATE_AND_TIME_ASSIGNMENT ( #189, #125, ( #84 ) ) ;
#66 = CALENDAR_DATE ( 2021, 6, 10 ) ;
#67 = DESIGN_CONTEXT ( 'detailed design', #131, 'design' ) ;
#68 = CONICAL_SURFACE ( 'NONE', #163, 0.8749999999999965583, 1.047197551196592746 ) ;
#69 = PERSON_AND_ORGANIZATION_ROLE ( 'classification_officer' ) ;
#70 = EDGE_LOOP ( 'NONE', ( #161 ) ) ;
#71 = CYLINDRICAL_SURFACE ( 'NONE', #21, 0.8749999999999971134 ) ;
#72 = CARTESIAN_POINT ( 'NONE',  ( 3.142333204958820020E-14, -1.102182119232617714E-15, 9.000000000000000000 ) ) ;
#73 = CARTESIAN_POINT ( 'NONE',  ( 1.319779946082704535E-13, -4.629164900776995227E-15, 37.79999999999999716 ) ) ;
#74 = DIRECTION ( 'NONE',  ( 3.491481338843133355E-15, -1.224646799147353207E-16, 1.000000000000000000 ) ) ;
#75 = DIRECTION ( 'NONE',  ( 4.275831445896958607E-31, 1.000000000000000000, 1.224646799147353207E-16 ) ) ;
#76 = PERSON_AND_ORGANIZATION_ROLE ( 'design_owner' ) ;
#77 = AXIS2_PLACEMENT_3D ( 'NONE', #62, #171, #185 ) ;
#78 = LOCAL_TIME ( 10, 24, 59.00000000000000000, #83 ) ;
#79 = DATE_TIME_ROLE ( 'creation_date' ) ;
#80 = CARTESIAN_POINT ( 'NONE',  ( 1.763831729495196855E-15, 0.8749999999999964473, 0.5051814855409264560 ) ) ;
#81 = AXIS2_PLACEMENT_3D ( 'NONE', #134, #8, #56 ) ;
#82 = ADVANCED_FACE ( 'NONE', ( #117 ), #88, .T. ) ;
#83 = COORDINATED_UNIVERSAL_TIME_OFFSET ( 1, 0, .AHEAD. ) ;
#84 = SECURITY_CLASSIFICATION ( '', '', #124 ) ;
#85 = ORIENTED_EDGE ( 'NONE', *, *, #51, .T. ) ;
#86 = AXIS2_PLACEMENT_3D ( 'NONE', #183, #145, #149 ) ;
#87 = EDGE_LOOP ( 'NONE', ( #128 ) ) ;
#88 = PLANE ( 'NONE',  #200 ) ;
#89 = PLANE ( 'NONE',  #36 ) ;
#90 = ORGANIZATION ( 'UNSPECIFIED', 'UNSPECIFIED', '' ) ;
#91 = CARTESIAN_POINT ( 'NONE',  ( 1.319779946082704535E-13, 0.8749999999999964473, 37.79999999999999716 ) ) ;
#92 = CALENDAR_DATE ( 2021, 6, 10 ) ;
#93 =( NAMED_UNIT ( * ) PLANE_ANGLE_UNIT ( ) SI_UNIT ( $, .RADIAN. ) );
#94 = COORDINATED_UNIVERSAL_TIME_OFFSET ( 1, 0, .AHEAD. ) ;
#95 = CLOSED_SHELL ( 'NONE', ( #14, #188, #17, #112 ) ) ;
#96 = MANIFOLD_SOLID_BREP ( 'Corps-Déplacer/Copier1[1]', #95 ) ;
#97 = CIRCLE ( 'NONE', #81, 0.8749999999999975575 ) ;
#98 = PERSON ( 'UNSPECIFIED', 'UNSPECIFIED', 'UNSPECIFIED', ('UNSPECIFIED'), ('UNSPECIFIED'), ('UNSPECIFIED') ) ;
#99 = ORIENTED_EDGE ( 'NONE', *, *, #155, .T. ) ;
#100 = FACE_OUTER_BOUND ( 'NONE', #190, .T. ) ;
#101 = DIRECTION ( 'NONE',  ( 3.491481338843133355E-15, -1.224646799147353207E-16, 1.000000000000000000 ) ) ;
#102 = DIRECTION ( 'NONE',  ( 4.275831445896958607E-31, 1.000000000000000000, 1.224646799147353207E-16 ) ) ;
#103 = FACE_OUTER_BOUND ( 'NONE', #53, .T. ) ;
#104 = PERSON_AND_ORGANIZATION ( #98, #90 ) ;
#105 = AXIS2_PLACEMENT_3D ( 'NONE', #166, #23, #75 ) ;
#106 = CC_DESIGN_PERSON_AND_ORGANIZATION_ASSIGNMENT ( #138, #76, ( #150 ) ) ;
#107 = ADVANCED_BREP_SHAPE_REPRESENTATION ( '42537', ( #96, #31, #77 ), #178 ) ;
#108 = CIRCLE ( 'NONE', #139, 0.8749999999999965583 ) ;
#109 = CC_DESIGN_APPROVAL ( #193, ( #84 ) ) ;
#110 = ORIENTED_EDGE ( 'NONE', *, *, #151, .F. ) ;
#111 = ORIENTED_EDGE ( 'NONE', *, *, #1, .T. ) ;
#112 = ADVANCED_FACE ( 'NONE', ( #162 ), #146, .F. ) ;
#113 = FACE_OUTER_BOUND ( 'NONE', #70, .T. ) ;
#114 = FACE_OUTER_BOUND ( 'NONE', #179, .T. ) ;
#115 = APPROVAL_PERSON_ORGANIZATION ( #153, #43, #120 ) ;
#116 = DIRECTION ( 'NONE',  ( -4.275831445896958607E-31, -1.000000000000000000, -1.224646799147353207E-16 ) ) ;
#117 = FACE_OUTER_BOUND ( 'NONE', #87, .T. ) ;
#118 = CC_DESIGN_PERSON_AND_ORGANIZATION_ASSIGNMENT ( #61, #15, ( #2 ) ) ;
#119 = CC_DESIGN_SECURITY_CLASSIFICATION ( #84, ( #2 ) ) ;
#120 = APPROVAL_ROLE ( '' ) ;
#121 = APPLICATION_PROTOCOL_DEFINITION ( 'international standard', 'config_control_design', 1994, #11 ) ;
#122 = CALENDAR_DATE ( 2021, 6, 10 ) ;
#123 = ADVANCED_FACE ( 'NONE', ( #184, #103 ), #71, .T. ) ;
#124 = SECURITY_CLASSIFICATION_LEVEL ( 'unclassified' ) ;
#125 = DATE_TIME_ROLE ( 'classification_date' ) ;
#126 = CC_DESIGN_PERSON_AND_ORGANIZATION_ASSIGNMENT ( #49, #198, ( #130 ) ) ;
#127 = LOCAL_TIME ( 10, 24, 59.00000000000000000, #157 ) ;
#128 = ORIENTED_EDGE ( 'NONE', *, *, #1, .F. ) ;
#129 = ORIENTED_EDGE ( 'NONE', *, *, #155, .F. ) ;
#130 = PRODUCT_DEFINITION ( 'UNKNOWN', '', #2, #67 ) ;
#131 = APPLICATION_CONTEXT ( 'configuration controlled 3d designs of mechanical parts and assemblies' ) ;
#132 = CIRCLE ( 'NONE', #18, 0.8750000000000011102 ) ;
#133 = DIRECTION ( 'NONE',  ( -3.491481338843133355E-15, 1.224646799147353207E-16, -1.000000000000000000 ) ) ;
#134 = CARTESIAN_POINT ( 'NONE',  ( 3.142333204958820020E-14, -1.102182119232617714E-15, 9.000000000000000000 ) ) ;
#135 = DIRECTION ( 'NONE',  ( 0.0000000000000000000, 1.000000000000000000, 0.0000000000000000000 ) ) ;
#136 = DIRECTION ( 'NONE',  ( -4.402125587170842448E-31, -1.000000000000000000, -1.239088197126295747E-16 ) ) ;
#137 = CALENDAR_DATE ( 2021, 6, 10 ) ;
#138 = PERSON_AND_ORGANIZATION ( #98, #90 ) ;
#139 = AXIS2_PLACEMENT_3D ( 'NONE', #27, #54, #39 ) ;
#140 =( NAMED_UNIT ( * ) SI_UNIT ( $, .STERADIAN. ) SOLID_ANGLE_UNIT ( ) );
#141 = VERTEX_POINT ( 'NONE', #169 ) ;
#142 = APPROVAL_STATUS ( 'not_yet_approved' ) ;
#143 = AXIS2_PLACEMENT_3D ( 'NONE', #24, #40, #9 ) ;
#144 = EDGE_CURVE ( 'NONE', #45, #45, #97, .T. ) ;
#145 = DIRECTION ( 'NONE',  ( -3.491481338843133355E-15, 1.224646799147353207E-16, -1.000000000000000000 ) ) ;
#146 = PLANE ( 'NONE',  #105 ) ;
#147 = CARTESIAN_POINT ( 'NONE',  ( 3.142333204958820020E-14, 6.561449049145591454E-33, 9.000000000000000000 ) ) ;
#148 = CARTESIAN_POINT ( 'NONE',  ( 1.763831729495196460E-15, -6.186688892562003636E-17, 0.5051814855409263449 ) ) ;
#149 = DIRECTION ( 'NONE',  ( 0.0000000000000000000, 1.000000000000000000, 0.0000000000000000000 ) ) ;
#150 = PRODUCT ( '42537', '42537', '', ( #46 ) ) ;
#151 = EDGE_CURVE ( 'NONE', #186, #186, #132, .T. ) ;
#152 = DATE_AND_TIME ( #122, #57 ) ;
#153 = PERSON_AND_ORGANIZATION ( #98, #90 ) ;
#154 = VERTEX_POINT ( 'NONE', #80 ) ;
#155 = EDGE_CURVE ( 'NONE', #154, #154, #108, .T. ) ;
#156 = CIRCLE ( 'NONE', #86, 0.6750000000000011546 ) ;
#157 = COORDINATED_UNIVERSAL_TIME_OFFSET ( 1, 0, .AHEAD. ) ;
#158 = APPROVAL_DATE_TIME ( #203, #60 ) ;
#159 = PERSON_AND_ORGANIZATION ( #98, #90 ) ;
#160 = SHAPE_DEFINITION_REPRESENTATION ( #173, #107 ) ;
#161 = ORIENTED_EDGE ( 'NONE', *, *, #144, .T. ) ;
#162 = FACE_OUTER_BOUND ( 'NONE', #3, .T. ) ;
#163 = AXIS2_PLACEMENT_3D ( 'NONE', #148, #181, #136 ) ;
#164 = DIRECTION ( 'NONE',  ( -3.491481338843133355E-15, 1.224646799147353207E-16, -1.000000000000000000 ) ) ;
#165 = ADVANCED_FACE ( 'NONE', ( #114 ), #68, .T. ) ;
#166 = CARTESIAN_POINT ( 'NONE',  ( 1.326762908760390423E-13, 5.061689266483707846E-33, 38.00000000000000000 ) ) ;
#167 = FACE_BOUND ( 'NONE', #59, .T. ) ;
#168 = CARTESIAN_POINT ( 'NONE',  ( 0.0000000000000000000, 0.0000000000000000000, 0.0000000000000000000 ) ) ;
#169 = CARTESIAN_POINT ( 'NONE',  ( 1.326762908760390423E-13, 0.6749999999999964917, 38.00000000000000000 ) ) ;
#170 = CC_DESIGN_APPROVAL ( #43, ( #2 ) ) ;
#171 = DIRECTION ( 'NONE',  ( 0.0000000000000000000, 0.0000000000000000000, 1.000000000000000000 ) ) ;
#172 = PERSON_AND_ORGANIZATION ( #98, #90 ) ;
#173 = PRODUCT_DEFINITION_SHAPE ( 'NONE', 'NONE',  #130 ) ;
#174 = CONICAL_SURFACE ( 'NONE', #143, 0.6750000000000011546, 0.7853981633974512766 ) ;
#175 = APPROVAL_STATUS ( 'not_yet_approved' ) ;
#176 = EDGE_LOOP ( 'NONE', ( #110 ) ) ;
#177 = COORDINATED_UNIVERSAL_TIME_OFFSET ( 1, 0, .AHEAD. ) ;
#178 =( GEOMETRIC_REPRESENTATION_CONTEXT ( 3 ) GLOBAL_UNCERTAINTY_ASSIGNED_CONTEXT ( ( #52 ) ) GLOBAL_UNIT_ASSIGNED_CONTEXT ( ( #199, #93, #140 ) ) REPRESENTATION_CONTEXT ( 'NONE', 'WORKASPACE' ) );
#179 = EDGE_LOOP ( 'NONE', ( #99 ) ) ;
#180 = PRODUCT_RELATED_PRODUCT_CATEGORY ( 'detail', '', ( #150 ) ) ;
#181 = DIRECTION ( 'NONE',  ( 3.491481338843133355E-15, -1.224646799147353207E-16, 1.000000000000000000 ) ) ;
#182 = LOCAL_TIME ( 10, 24, 59.00000000000000000, #94 ) ;
#183 = CARTESIAN_POINT ( 'NONE',  ( 1.326762908760390423E-13, -4.653657836759941941E-15, 38.00000000000000000 ) ) ;
#184 = FACE_OUTER_BOUND ( 'NONE', #195, .T. ) ;
#185 = DIRECTION ( 'NONE',  ( 1.000000000000000000, 0.0000000000000000000, 0.0000000000000000000 ) ) ;
#186 = VERTEX_POINT ( 'NONE', #91 ) ;
#187 = PERSON_AND_ORGANIZATION ( #98, #90 ) ;
#188 = ADVANCED_FACE ( 'NONE', ( #100, #22 ), #196, .T. ) ;
#189 = DATE_AND_TIME ( #35, #26 ) ;
#190 = EDGE_LOOP ( 'NONE', ( #197 ) ) ;
#191 = APPROVAL_PERSON_ORGANIZATION ( #104, #60, #29 ) ;
#192 = DIRECTION ( 'NONE',  ( 4.275831445896958607E-31, 1.000000000000000000, 1.224646799147353207E-16 ) ) ;
#193 = APPROVAL ( #175, 'UNSPECIFIED' ) ;
#194 = DIRECTION ( 'NONE',  ( -3.491481338843133355E-15, 1.224646799147353207E-16, -1.000000000000000000 ) ) ;
#195 = EDGE_LOOP ( 'NONE', ( #129 ) ) ;
#196 = CYLINDRICAL_SURFACE ( 'NONE', #44, 0.8749999999999992228 ) ;
#197 = ORIENTED_EDGE ( 'NONE', *, *, #144, .F. ) ;
#198 = PERSON_AND_ORGANIZATION_ROLE ( 'creator' ) ;
#199 =( LENGTH_UNIT ( ) NAMED_UNIT ( * ) SI_UNIT ( .MILLI., .METRE. ) );
#200 = AXIS2_PLACEMENT_3D ( 'NONE', #147, #101, #38 ) ;
#201 = APPROVAL_PERSON_ORGANIZATION ( #159, #193, #16 ) ;
#202 = APPROVAL_STATUS ( 'not_yet_approved' ) ;
#203 = DATE_AND_TIME ( #137, #182 ) ;
ENDSEC;
END-ISO-10303-21;
