ISO-10303-21;
HEADER;
FILE_DESCRIPTION (( 'STEP AP203' ),
    '1' );
FILE_NAME ('42524.step',
    '2021-09-03T07:22:26',
    ( '' ),
    ( '' ),
    'SwSTEP 2.0',
    'SolidWorks 2019',
    '' );
FILE_SCHEMA (( 'CONFIG_CONTROL_DESIGN' ));
ENDSEC;

DATA;
#1 = FACE_OUTER_BOUND ( 'NONE', #309, .T. ) ;
#2 = CARTESIAN_POINT ( 'NONE',  ( 0.0000000000000000000, 0.0000000000000000000, 0.0000000000000000000 ) ) ;
#3 = ORIENTED_EDGE ( 'NONE', *, *, #6, .F. ) ;
#4 = AXIS2_PLACEMENT_3D ( 'NONE', #108, #228, #203 ) ;
#5 = AXIS2_PLACEMENT_3D ( 'NONE', #268, #19, #46 ) ;
#6 = EDGE_CURVE ( 'NONE', #210, #24, #315, .T. ) ;
#7 = ORIENTED_EDGE ( 'NONE', *, *, #225, .T. ) ;
#8 = CIRCLE ( 'NONE', #59, 2.424999999999993161 ) ;
#9 = ORIENTED_EDGE ( 'NONE', *, *, #81, .T. ) ;
#10 = APPLICATION_PROTOCOL_DEFINITION ( 'international standard', 'config_control_design', 1994, #29 ) ;
#11 = ORIENTED_EDGE ( 'NONE', *, *, #156, .F. ) ;
#12 = CARTESIAN_POINT ( 'NONE',  ( 6.982962677686266711E-14, -2.449293598294706513E-15, 20.00000000000000000 ) ) ;
#13 = CIRCLE ( 'NONE', #269, 1.925000000000000711 ) ;
#14 = CONICAL_SURFACE ( 'NONE', #256, 2.424999999999993161, 1.029744258676649649 ) ;
#15 = VERTEX_POINT ( 'NONE', #161 ) ;
#16 = FACE_OUTER_BOUND ( 'NONE', #33, .T. ) ;
#17 = ADVANCED_FACE ( 'NONE', ( #1 ), #296, .T. ) ;
#18 = DIRECTION ( 'NONE',  ( 4.275831445896958607E-31, 1.000000000000000000, 1.224646799147353207E-16 ) ) ;
#19 = DIRECTION ( 'NONE',  ( -3.491481338843133355E-15, 1.224646799147353207E-16, -1.000000000000000000 ) ) ;
#20 = CIRCLE ( 'NONE', #288, 2.424999999999995826 ) ;
#21 = CYLINDRICAL_SURFACE ( 'NONE', #47, 2.424999999999994493 ) ;
#22 = CYLINDRICAL_SURFACE ( 'NONE', #154, 2.424999999999998490 ) ;
#23 = EDGE_CURVE ( 'NONE', #193, #15, #20, .T. ) ;
#24 = VERTEX_POINT ( 'NONE', #333 ) ;
#25 = CC_DESIGN_APPROVAL ( #127, ( #132 ) ) ;
#26 = EDGE_CURVE ( 'NONE', #307, #193, #321, .T. ) ;
#27 = LINE ( 'NONE', #255, #276 ) ;
#28 = CALENDAR_DATE ( 2021, 3, 9 ) ;
#29 = APPLICATION_CONTEXT ( 'configuration controlled 3d designs of mechanical parts and assemblies' ) ;
#30 = CIRCLE ( 'NONE', #69, 2.425000000000000711 ) ;
#31 = ORIENTED_EDGE ( 'NONE', *, *, #156, .T. ) ;
#32 = UNCERTAINTY_MEASURE_WITH_UNIT (LENGTH_MEASURE( 1.000000000000000082E-05 ), #287, 'distance_accuracy_value', 'NONE');
#33 = EDGE_LOOP ( 'NONE', ( #31, #67, #184, #58 ) ) ;
#34 = DATE_AND_TIME ( #270, #179 ) ;
#35 = DIRECTION ( 'NONE',  ( 0.0000000000000000000, 1.000000000000000000, 0.0000000000000000000 ) ) ;
#36 = ORIENTED_EDGE ( 'NONE', *, *, #73, .F. ) ;
#37 = APPROVAL_ROLE ( '' ) ;
#38 = AXIS2_PLACEMENT_3D ( 'NONE', #136, #241, #275 ) ;
#39 = EDGE_LOOP ( 'NONE', ( #102, #236, #298, #61 ) ) ;
#40 = EDGE_CURVE ( 'NONE', #284, #307, #27, .T. ) ;
#41 = ADVANCED_BREP_SHAPE_REPRESENTATION ( '42524', ( #52, #55, #49 ), #277 ) ;
#42 = CARTESIAN_POINT ( 'NONE',  ( 2.147261023388527077E-13, -7.531577814756222656E-15, 61.50000000000000000 ) ) ;
#43 = APPROVAL_ROLE ( '' ) ;
#44 = DIRECTION ( 'NONE',  ( -3.491481338843133355E-15, 1.224646799147353207E-16, -1.000000000000000000 ) ) ;
#45 = DIRECTION ( 'NONE',  ( 0.0000000000000000000, 1.000000000000000000, 0.0000000000000000000 ) ) ;
#46 = DIRECTION ( 'NONE',  ( 4.275831445896958607E-31, 1.000000000000000000, 1.224646799147353207E-16 ) ) ;
#47 = AXIS2_PLACEMENT_3D ( 'NONE', #331, #177, #278 ) ;
#48 = CC_DESIGN_DATE_AND_TIME_ASSIGNMENT ( #293, #111, ( #330 ) ) ;
#49 = AXIS2_PLACEMENT_3D ( 'NONE', #169, #114, #147 ) ;
#50 = CALENDAR_DATE ( 2021, 3, 9 ) ;
#51 = CARTESIAN_POINT ( 'NONE',  ( 2.969768487932314721E-16, -2.424999999999994493, -2.969768487932334936E-16 ) ) ;
#52 = MANIFOLD_SOLID_BREP ( 'Corps-Déplacer/Copier1[1]', #215 ) ;
#53 = ORIENTED_EDGE ( 'NONE', *, *, #68, .F. ) ;
#54 = FACE_OUTER_BOUND ( 'NONE', #100, .T. ) ;
#55 = MANIFOLD_SOLID_BREP ( 'Corps-Déplacer/Copier1[2]', #99 ) ;
#56 = FACE_OUTER_BOUND ( 'NONE', #39, .T. ) ;
#57 = EDGE_CURVE ( 'NONE', #115, #181, #159, .T. ) ;
#58 = ORIENTED_EDGE ( 'NONE', *, *, #40, .F. ) ;
#59 = AXIS2_PLACEMENT_3D ( 'NONE', #131, #71, #207 ) ;
#60 = LOCAL_TIME ( 9, 22, 26.00000000000000000, #65 ) ;
#61 = ORIENTED_EDGE ( 'NONE', *, *, #274, .F. ) ;
#62 = PERSON_AND_ORGANIZATION ( #143, #206 ) ;
#63 = DIRECTION ( 'NONE',  ( 4.275831445896958607E-31, 1.000000000000000000, 1.224646799147353207E-16 ) ) ;
#64 = CC_DESIGN_SECURITY_CLASSIFICATION ( #132, ( #249 ) ) ;
#65 = COORDINATED_UNIVERSAL_TIME_OFFSET ( 1, 0, .AHEAD. ) ;
#66 = DIRECTION ( 'NONE',  ( -4.275831445896958607E-31, -1.000000000000000000, -1.224646799147353207E-16 ) ) ;
#67 = ORIENTED_EDGE ( 'NONE', *, *, #6, .T. ) ;
#68 = EDGE_CURVE ( 'NONE', #300, #260, #8, .T. ) ;
#69 = AXIS2_PLACEMENT_3D ( 'NONE', #97, #303, #152 ) ;
#70 = ORIENTED_EDGE ( 'NONE', *, *, #73, .T. ) ;
#71 = DIRECTION ( 'NONE',  ( -3.491481338843133355E-15, 1.224646799147353207E-16, -1.000000000000000000 ) ) ;
#72 = LINE ( 'NONE', #74, #92 ) ;
#73 = EDGE_CURVE ( 'NONE', #260, #300, #119, .T. ) ;
#74 = CARTESIAN_POINT ( 'NONE',  ( 2.969768487932319651E-16, -2.424999999999998490, -2.969768487932339866E-16 ) ) ;
#75 = CC_DESIGN_APPROVAL ( #84, ( #249 ) ) ;
#76 = PERSON_AND_ORGANIZATION_ROLE ( 'creator' ) ;
#77 = PRODUCT_DEFINITION_SHAPE ( 'NONE', 'NONE',  #330 ) ;
#78 = PERSON_AND_ORGANIZATION_ROLE ( 'design_supplier' ) ;
#79 = CARTESIAN_POINT ( 'NONE',  ( 0.0000000000000000000, 0.0000000000000000000, 0.0000000000000000000 ) ) ;
#80 = COORDINATED_UNIVERSAL_TIME_OFFSET ( 1, 0, .AHEAD. ) ;
#81 = EDGE_CURVE ( 'NONE', #240, #260, #273, .T. ) ;
#82 = DIRECTION ( 'NONE',  ( -4.275831445896958607E-31, -1.000000000000000000, -1.224646799147353207E-16 ) ) ;
#83 = ORIENTED_EDGE ( 'NONE', *, *, #332, .T. ) ;
#84 = APPROVAL ( #261, 'UNSPECIFIED' ) ;
#85 = ORIENTED_EDGE ( 'NONE', *, *, #40, .T. ) ;
#86 = PERSON_AND_ORGANIZATION_ROLE ( 'design_owner' ) ;
#87 = LOCAL_TIME ( 9, 22, 26.00000000000000000, #80 ) ;
#88 = DATE_AND_TIME ( #196, #120 ) ;
#89 = CARTESIAN_POINT ( 'NONE',  ( 1.036889125630010040E-30, 2.424999999999994493, 2.969768487932324582E-16 ) ) ;
#90 = DIRECTION ( 'NONE',  ( 0.0000000000000000000, 1.000000000000000000, 0.0000000000000000000 ) ) ;
#91 = SHAPE_DEFINITION_REPRESENTATION ( #77, #41 ) ;
#92 = VECTOR ( 'NONE', #190, 1000.000000000000000 ) ;
#93 = CARTESIAN_POINT ( 'NONE',  ( 2.164718430082742680E-13, 1.924999999999993161, 62.00000000000000000 ) ) ;
#94 = APPROVAL_PERSON_ORGANIZATION ( #134, #308, #37 ) ;
#95 = ORIENTED_EDGE ( 'NONE', *, *, #137, .T. ) ;
#96 = ADVANCED_FACE ( 'NONE', ( #54 ), #21, .T. ) ;
#97 = CARTESIAN_POINT ( 'NONE',  ( 2.147261023388527077E-13, -7.531577814756222656E-15, 61.50000000000000000 ) ) ;
#98 = CARTESIAN_POINT ( 'NONE',  ( 3.775548627400335705E-14, -2.424999999999998490, 20.00000000000000000 ) ) ;
#99 = CLOSED_SHELL ( 'NONE', ( #96, #187, #320, #291, #220 ) ) ;
#100 = EDGE_LOOP ( 'NONE', ( #176, #7, #53, #205 ) ) ;
#101 = ORIENTED_EDGE ( 'NONE', *, *, #274, .T. ) ;
#102 = ORIENTED_EDGE ( 'NONE', *, *, #245, .F. ) ;
#103 = CARTESIAN_POINT ( 'NONE',  ( 1.036889125630011792E-30, 2.424999999999998490, 2.969768487932329512E-16 ) ) ;
#104 = DIRECTION ( 'NONE',  ( -3.491481338843133355E-15, 1.224646799147353207E-16, -1.000000000000000000 ) ) ;
#105 = APPROVAL_PERSON_ORGANIZATION ( #112, #84, #289 ) ;
#106 = ORIENTED_EDGE ( 'NONE', *, *, #310, .T. ) ;
#107 = CC_DESIGN_PERSON_AND_ORGANIZATION_ASSIGNMENT ( #324, #86, ( #285 ) ) ;
#108 = CARTESIAN_POINT ( 'NONE',  ( 5.087392073557657411E-15, -1.784416932027577111E-16, 1.457087001141845750 ) ) ;
#109 = EDGE_LOOP ( 'NONE', ( #158, #83, #95, #36 ) ) ;
#110 = CARTESIAN_POINT ( 'NONE',  ( 5.087392073557657411E-15, -1.784416932027577111E-16, 1.457087001141845750 ) ) ;
#111 = DATE_TIME_ROLE ( 'creation_date' ) ;
#112 = PERSON_AND_ORGANIZATION ( #143, #206 ) ;
#113 = ORIENTED_EDGE ( 'NONE', *, *, #23, .T. ) ;
#114 = DIRECTION ( 'NONE',  ( 0.0000000000000000000, 0.0000000000000000000, 1.000000000000000000 ) ) ;
#115 = VERTEX_POINT ( 'NONE', #189 ) ;
#116 = EDGE_LOOP ( 'NONE', ( #144, #9, #70 ) ) ;
#117 = DIRECTION ( 'NONE',  ( -3.491481338843133355E-15, 1.224646799147353207E-16, -1.000000000000000000 ) ) ;
#118 = DIRECTION ( 'NONE',  ( -3.491481338843133355E-15, 1.224646799147353207E-16, -1.000000000000000000 ) ) ;
#119 = CIRCLE ( 'NONE', #4, 2.424999999999993161 ) ;
#120 = LOCAL_TIME ( 9, 22, 26.00000000000000000, #265 ) ;
#121 = CARTESIAN_POINT ( 'NONE',  ( 2.164718430082742680E-13, -7.592810154713590230E-15, 62.00000000000000000 ) ) ;
#122 = ADVANCED_FACE ( 'NONE', ( #171 ), #146, .F. ) ;
#123 = CIRCLE ( 'NONE', #168, 2.424999999999995826 ) ;
#124 = DIRECTION ( 'NONE',  ( -3.491481338843133355E-15, 1.224646799147353207E-16, -1.000000000000000000 ) ) ;
#125 = DIRECTION ( 'NONE',  ( 3.491481338843133355E-15, -1.224646799147353207E-16, 1.000000000000000000 ) ) ;
#126 = DIRECTION ( 'NONE',  ( -3.491481338843133355E-15, 1.224646799147353207E-16, -1.000000000000000000 ) ) ;
#127 = APPROVAL ( #328, 'UNSPECIFIED' ) ;
#128 = VECTOR ( 'NONE', #318, 1000.000000000000000 ) ;
#129 = EDGE_LOOP ( 'NONE', ( #113, #101 ) ) ;
#130 = ORIENTED_EDGE ( 'NONE', *, *, #213, .F. ) ;
#131 = CARTESIAN_POINT ( 'NONE',  ( 5.087392073557657411E-15, -1.784416932027577111E-16, 1.457087001141845750 ) ) ;
#132 = SECURITY_CLASSIFICATION ( '', '', #133 ) ;
#133 = SECURITY_CLASSIFICATION_LEVEL ( 'unclassified' ) ;
#134 = PERSON_AND_ORGANIZATION ( #143, #206 ) ;
#135 = DIRECTION ( 'NONE',  ( 0.0000000000000000000, 1.000000000000000000, 0.0000000000000000000 ) ) ;
#136 = CARTESIAN_POINT ( 'NONE',  ( 6.982962677686266711E-14, -2.449293598294706513E-15, 20.00000000000000000 ) ) ;
#137 = EDGE_CURVE ( 'NONE', #115, #300, #299, .T. ) ;
#138 = CARTESIAN_POINT ( 'NONE',  ( 6.982962677686266711E-14, 1.818458736477495370E-32, 20.00000000000000000 ) ) ;
#139 = AXIS2_PLACEMENT_3D ( 'NONE', #162, #104, #314 ) ;
#140 = EDGE_LOOP ( 'NONE', ( #106, #234, #283, #244 ) ) ;
#141 = DIRECTION ( 'NONE',  ( -3.491481338843133355E-15, 1.224646799147353207E-16, -1.000000000000000000 ) ) ;
#142 = APPROVAL_DATE_TIME ( #216, #308 ) ;
#143 = PERSON ( 'UNSPECIFIED', 'UNSPECIFIED', 'UNSPECIFIED', ('UNSPECIFIED'), ('UNSPECIFIED'), ('UNSPECIFIED') ) ;
#144 = ORIENTED_EDGE ( 'NONE', *, *, #334, .F. ) ;
#145 = PRODUCT_RELATED_PRODUCT_CATEGORY ( 'detail', '', ( #285 ) ) ;
#146 = PLANE ( 'NONE',  #304 ) ;
#147 = DIRECTION ( 'NONE',  ( 1.000000000000000000, 0.0000000000000000000, 0.0000000000000000000 ) ) ;
#148 = DIRECTION ( 'NONE',  ( -3.491481338843133355E-15, 1.224646799147353207E-16, -1.000000000000000000 ) ) ;
#149 = VECTOR ( 'NONE', #208, 1000.000000000000000 ) ;
#150 = DESIGN_CONTEXT ( 'detailed design', #151, 'design' ) ;
#151 = APPLICATION_CONTEXT ( 'configuration controlled 3d designs of mechanical parts and assemblies' ) ;
#152 = DIRECTION ( 'NONE',  ( 0.0000000000000000000, 1.000000000000000000, 0.0000000000000000000 ) ) ;
#153 = AXIS2_PLACEMENT_3D ( 'NONE', #232, #126, #135 ) ;
#154 = AXIS2_PLACEMENT_3D ( 'NONE', #279, #124, #63 ) ;
#155 = ADVANCED_FACE ( 'NONE', ( #327 ), #170, .F. ) ;
#156 = EDGE_CURVE ( 'NONE', #284, #210, #13, .T. ) ;
#157 = FACE_OUTER_BOUND ( 'NONE', #186, .T. ) ;
#158 = ORIENTED_EDGE ( 'NONE', *, *, #225, .F. ) ;
#159 = CIRCLE ( 'NONE', #38, 2.424999999999995826 ) ;
#160 = CIRCLE ( 'NONE', #139, 1.925000000000000711 ) ;
#161 = CARTESIAN_POINT ( 'NONE',  ( 1.425748414066509031E-13, -2.424999999999998490, 20.00000000000000000 ) ) ;
#162 = CARTESIAN_POINT ( 'NONE',  ( 2.164718430082742680E-13, -7.592810154713590230E-15, 62.00000000000000000 ) ) ;
#163 = ORIENTED_EDGE ( 'NONE', *, *, #332, .F. ) ;
#164 = PERSON_AND_ORGANIZATION ( #143, #206 ) ;
#165 = AXIS2_PLACEMENT_3D ( 'NONE', #121, #44, #250 ) ;
#166 = ORIENTED_EDGE ( 'NONE', *, *, #81, .F. ) ;
#167 = ORIENTED_EDGE ( 'NONE', *, *, #68, .T. ) ;
#168 = AXIS2_PLACEMENT_3D ( 'NONE', #12, #118, #295 ) ;
#169 = CARTESIAN_POINT ( 'NONE',  ( 0.0000000000000000000, 0.0000000000000000000, 0.0000000000000000000 ) ) ;
#170 = PLANE ( 'NONE',  #253 ) ;
#171 = FACE_OUTER_BOUND ( 'NONE', #239, .T. ) ;
#172 = CARTESIAN_POINT ( 'NONE',  ( 6.982962677686266711E-14, -2.449293598294706513E-15, 20.00000000000000000 ) ) ;
#173 = CC_DESIGN_PERSON_AND_ORGANIZATION_ASSIGNMENT ( #164, #76, ( #249 ) ) ;
#174 = CYLINDRICAL_SURFACE ( 'NONE', #5, 2.424999999999994493 ) ;
#175 = CARTESIAN_POINT ( 'NONE',  ( 2.158653333523780008E-13, -1.925000000000008260, 62.00000000000000000 ) ) ;
#176 = ORIENTED_EDGE ( 'NONE', *, *, #57, .T. ) ;
#177 = DIRECTION ( 'NONE',  ( -3.491481338843133355E-15, 1.224646799147353207E-16, -1.000000000000000000 ) ) ;
#178 = VECTOR ( 'NONE', #281, 1000.000000000000000 ) ;
#179 = LOCAL_TIME ( 9, 22, 26.00000000000000000, #242 ) ;
#180 = FACE_OUTER_BOUND ( 'NONE', #243, .T. ) ;
#181 = VERTEX_POINT ( 'NONE', #98 ) ;
#182 = CYLINDRICAL_SURFACE ( 'NONE', #313, 2.424999999999998490 ) ;
#183 = DIRECTION ( 'NONE',  ( -3.491481338843133355E-15, 1.224646799147353207E-16, -1.000000000000000000 ) ) ;
#184 = ORIENTED_EDGE ( 'NONE', *, *, #310, .F. ) ;
#185 = CARTESIAN_POINT ( 'NONE',  ( 5.087392073557656622E-15, -2.424999999999993161, 1.457087001141845528 ) ) ;
#186 = EDGE_LOOP ( 'NONE', ( #286, #163 ) ) ;
#187 = ADVANCED_FACE ( 'NONE', ( #180 ), #319, .T. ) ;
#188 = ORIENTED_EDGE ( 'NONE', *, *, #259, .T. ) ;
#189 = CARTESIAN_POINT ( 'NONE',  ( 6.982962677686266711E-14, 2.424999999999993161, 20.00000000000000000 ) ) ;
#190 = DIRECTION ( 'NONE',  ( -3.491481338843133355E-15, 1.224646799147353207E-16, -1.000000000000000000 ) ) ;
#191 = AXIS2_PLACEMENT_3D ( 'NONE', #42, #224, #45 ) ;
#192 = CC_DESIGN_PERSON_AND_ORGANIZATION_ASSIGNMENT ( #212, #197, ( #132 ) ) ;
#193 = VERTEX_POINT ( 'NONE', #226 ) ;
#194 = CARTESIAN_POINT ( 'NONE',  ( 2.164718430082742680E-13, 1.443518790812027137E-32, 62.00000000000000000 ) ) ;
#195 = ORIENTED_EDGE ( 'NONE', *, *, #334, .T. ) ;
#196 = CALENDAR_DATE ( 2021, 3, 9 ) ;
#197 = PERSON_AND_ORGANIZATION_ROLE ( 'classification_officer' ) ;
#198 = CARTESIAN_POINT ( 'NONE',  ( 5.384368922350891250E-15, 2.424999999999993161, 1.457087001141845972 ) ) ;
#199 = PERSON_AND_ORGANIZATION ( #143, #206 ) ;
#200 = DIRECTION ( 'NONE',  ( 3.491481338843133355E-15, -1.224646799147353207E-16, 1.000000000000000000 ) ) ;
#201 = FACE_OUTER_BOUND ( 'NONE', #116, .T. ) ;
#202 = CIRCLE ( 'NONE', #191, 2.425000000000000711 ) ;
#203 = DIRECTION ( 'NONE',  ( 3.176791660844933976E-31, 1.000000000000000000, 8.941873587509339851E-17 ) ) ;
#204 = DIRECTION ( 'NONE',  ( 4.275831445896958607E-31, 1.000000000000000000, 1.224646799147353207E-16 ) ) ;
#205 = ORIENTED_EDGE ( 'NONE', *, *, #137, .F. ) ;
#206 = ORGANIZATION ( 'UNSPECIFIED', 'UNSPECIFIED', '' ) ;
#207 = DIRECTION ( 'NONE',  ( 3.176791660844933976E-31, 1.000000000000000000, 8.941873587509339851E-17 ) ) ;
#208 = DIRECTION ( 'NONE',  ( -3.491481338843133355E-15, 1.224646799147353207E-16, -1.000000000000000000 ) ) ;
#209 = PERSON_AND_ORGANIZATION ( #143, #206 ) ;
#210 = VERTEX_POINT ( 'NONE', #175 ) ;
#211 = DIRECTION ( 'NONE',  ( 3.491481338843133355E-15, -1.224646799147353207E-16, 1.000000000000000000 ) ) ;
#212 = PERSON_AND_ORGANIZATION ( #143, #206 ) ;
#213 = EDGE_CURVE ( 'NONE', #24, #307, #202, .T. ) ;
#214 = DIRECTION ( 'NONE',  ( 1.903218546456022717E-15, 0.8571673007021097801, 0.5150380749100585964 ) ) ;
#215 = CLOSED_SHELL ( 'NONE', ( #312, #248, #155, #267, #17, #122 ) ) ;
#216 = DATE_AND_TIME ( #235, #329 ) ;
#217 = APPROVAL_DATE_TIME ( #34, #127 ) ;
#218 = CARTESIAN_POINT ( 'NONE',  ( 2.167075875171101161E-13, -1.925000000000008260, 62.00000000000000000 ) ) ;
#219 = DATE_TIME_ROLE ( 'classification_date' ) ;
#220 = ADVANCED_FACE ( 'NONE', ( #157 ), #221, .T. ) ;
#221 = PLANE ( 'NONE',  #230 ) ;
#222 = CC_DESIGN_APPROVAL ( #308, ( #330 ) ) ;
#223 = CARTESIAN_POINT ( 'NONE',  ( 2.147261023388527077E-13, 2.424999999999993161, 61.50000000000000000 ) ) ;
#224 = DIRECTION ( 'NONE',  ( -3.491481338843133355E-15, 1.224646799147353207E-16, -1.000000000000000000 ) ) ;
#225 = EDGE_CURVE ( 'NONE', #181, #260, #280, .T. ) ;
#226 = CARTESIAN_POINT ( 'NONE',  ( 6.982962677686266711E-14, 2.424999999999993161, 20.00000000000000000 ) ) ;
#227 = FACE_OUTER_BOUND ( 'NONE', #109, .T. ) ;
#228 = DIRECTION ( 'NONE',  ( -3.491481338843133355E-15, 1.224646799147353207E-16, -1.000000000000000000 ) ) ;
#229 = CARTESIAN_POINT ( 'NONE',  ( 5.087392073557656622E-15, -2.424999999999993161, 1.457087001141845528 ) ) ;
#230 = AXIS2_PLACEMENT_3D ( 'NONE', #302, #200, #66 ) ;
#231 = CC_DESIGN_PERSON_AND_ORGANIZATION_ASSIGNMENT ( #199, #301, ( #330 ) ) ;
#232 = CARTESIAN_POINT ( 'NONE',  ( 2.164718430082742680E-13, -7.592810154713590230E-15, 62.00000000000000000 ) ) ;
#233 = CONICAL_SURFACE ( 'NONE', #165, 1.925000000000000711, 0.7853981633974476129 ) ;
#234 = ORIENTED_EDGE ( 'NONE', *, *, #245, .T. ) ;
#235 = CALENDAR_DATE ( 2021, 3, 9 ) ;
#236 = ORIENTED_EDGE ( 'NONE', *, *, #213, .T. ) ;
#237 = CARTESIAN_POINT ( 'NONE',  ( 5.384368922350891250E-15, 2.424999999999993161, 1.457087001141845972 ) ) ;
#238 = AXIS2_PLACEMENT_3D ( 'NONE', #272, #125, #306 ) ;
#239 = EDGE_LOOP ( 'NONE', ( #11, #337 ) ) ;
#240 = VERTEX_POINT ( 'NONE', #79 ) ;
#241 = DIRECTION ( 'NONE',  ( -3.491481338843133355E-15, 1.224646799147353207E-16, -1.000000000000000000 ) ) ;
#242 = COORDINATED_UNIVERSAL_TIME_OFFSET ( 1, 0, .AHEAD. ) ;
#243 = EDGE_LOOP ( 'NONE', ( #166, #195, #167 ) ) ;
#244 = ORIENTED_EDGE ( 'NONE', *, *, #26, .F. ) ;
#245 = EDGE_CURVE ( 'NONE', #24, #15, #72, .T. ) ;
#246 = DIRECTION ( 'NONE',  ( -3.491481338843133355E-15, 1.224646799147353207E-16, -1.000000000000000000 ) ) ;
#247 = COORDINATED_UNIVERSAL_TIME_OFFSET ( 1, 0, .AHEAD. ) ;
#248 = ADVANCED_FACE ( 'NONE', ( #336 ), #182, .T. ) ;
#249 = PRODUCT_DEFINITION_FORMATION_WITH_SPECIFIED_SOURCE ( 'ANY', '', #285, .NOT_KNOWN. ) ;
#250 = DIRECTION ( 'NONE',  ( 0.0000000000000000000, 1.000000000000000000, 0.0000000000000000000 ) ) ;
#251 = DIRECTION ( 'NONE',  ( 0.0000000000000000000, 1.000000000000000000, 0.0000000000000000000 ) ) ;
#252 = APPROVAL_STATUS ( 'not_yet_approved' ) ;
#253 = AXIS2_PLACEMENT_3D ( 'NONE', #138, #322, #82 ) ;
#254 = CC_DESIGN_DATE_AND_TIME_ASSIGNMENT ( #88, #219, ( #132 ) ) ;
#255 = CARTESIAN_POINT ( 'NONE',  ( 2.164718430082742680E-13, 1.924999999999993161, 62.00000000000000000 ) ) ;
#256 = AXIS2_PLACEMENT_3D ( 'NONE', #110, #211, #292 ) ;
#257 = DATE_AND_TIME ( #28, #87 ) ;
#258 =( NAMED_UNIT ( * ) PLANE_ANGLE_UNIT ( ) SI_UNIT ( $, .RADIAN. ) );
#259 = EDGE_CURVE ( 'NONE', #210, #284, #160, .T. ) ;
#260 = VERTEX_POINT ( 'NONE', #185 ) ;
#261 = APPROVAL_STATUS ( 'not_yet_approved' ) ;
#262 = CC_DESIGN_PERSON_AND_ORGANIZATION_ASSIGNMENT ( #209, #78, ( #249 ) ) ;
#263 = VECTOR ( 'NONE', #214, 999.9999999999998863 ) ;
#264 = MECHANICAL_CONTEXT ( 'NONE', #29, 'mechanical' ) ;
#265 = COORDINATED_UNIVERSAL_TIME_OFFSET ( 1, 0, .AHEAD. ) ;
#266 = APPLICATION_PROTOCOL_DEFINITION ( 'international standard', 'config_control_design', 1994, #151 ) ;
#267 = ADVANCED_FACE ( 'NONE', ( #56 ), #22, .T. ) ;
#268 = CARTESIAN_POINT ( 'NONE',  ( 0.0000000000000000000, 0.0000000000000000000, 0.0000000000000000000 ) ) ;
#269 = AXIS2_PLACEMENT_3D ( 'NONE', #294, #141, #35 ) ;
#270 = CALENDAR_DATE ( 2021, 3, 9 ) ;
#271 = DIRECTION ( 'NONE',  ( -3.491481338843133355E-15, 1.224646799147353207E-16, -1.000000000000000000 ) ) ;
#272 = CARTESIAN_POINT ( 'NONE',  ( 5.087392073557657411E-15, -1.784416932027577111E-16, 1.457087001141845750 ) ) ;
#273 = LINE ( 'NONE', #229, #178 ) ;
#274 = EDGE_CURVE ( 'NONE', #15, #193, #282, .T. ) ;
#275 = DIRECTION ( 'NONE',  ( 0.0000000000000000000, 1.000000000000000000, 0.0000000000000000000 ) ) ;
#276 = VECTOR ( 'NONE', #297, 1000.000000000000000 ) ;
#277 =( GEOMETRIC_REPRESENTATION_CONTEXT ( 3 ) GLOBAL_UNCERTAINTY_ASSIGNED_CONTEXT ( ( #32 ) ) GLOBAL_UNIT_ASSIGNED_CONTEXT ( ( #287, #258, #317 ) ) REPRESENTATION_CONTEXT ( 'NONE', 'WORKASPACE' ) );
#278 = DIRECTION ( 'NONE',  ( 4.275831445896958607E-31, 1.000000000000000000, 1.224646799147353207E-16 ) ) ;
#279 = CARTESIAN_POINT ( 'NONE',  ( 0.0000000000000000000, 0.0000000000000000000, 0.0000000000000000000 ) ) ;
#280 = LINE ( 'NONE', #51, #128 ) ;
#281 = DIRECTION ( 'NONE',  ( 1.798245827342160317E-15, -0.8571673007021098911, 0.5150380749100582634 ) ) ;
#282 = CIRCLE ( 'NONE', #305, 2.424999999999995826 ) ;
#283 = ORIENTED_EDGE ( 'NONE', *, *, #23, .F. ) ;
#284 = VERTEX_POINT ( 'NONE', #93 ) ;
#285 = PRODUCT ( '42524', '42524', '', ( #264 ) ) ;
#286 = ORIENTED_EDGE ( 'NONE', *, *, #57, .F. ) ;
#287 =( LENGTH_UNIT ( ) NAMED_UNIT ( * ) SI_UNIT ( .MILLI., .METRE. ) );
#288 = AXIS2_PLACEMENT_3D ( 'NONE', #323, #148, #251 ) ;
#289 = APPROVAL_ROLE ( '' ) ;
#290 = DIRECTION ( 'NONE',  ( -2.382254525458718258E-15, -0.7071067811865469066, -0.7071067811865482389 ) ) ;
#291 = ADVANCED_FACE ( 'NONE', ( #227 ), #174, .T. ) ;
#292 = DIRECTION ( 'NONE',  ( -3.176791660844933976E-31, -1.000000000000000000, -8.941873587509339851E-17 ) ) ;
#293 = DATE_AND_TIME ( #50, #60 ) ;
#294 = CARTESIAN_POINT ( 'NONE',  ( 2.164718430082742680E-13, -7.592810154713590230E-15, 62.00000000000000000 ) ) ;
#295 = DIRECTION ( 'NONE',  ( 0.0000000000000000000, 1.000000000000000000, 0.0000000000000000000 ) ) ;
#296 = CONICAL_SURFACE ( 'NONE', #153, 1.925000000000000711, 0.7853981633974476129 ) ;
#297 = DIRECTION ( 'NONE',  ( -2.468850131082267316E-15, 0.7071067811865471286, -0.7071067811865479058 ) ) ;
#298 = ORIENTED_EDGE ( 'NONE', *, *, #26, .T. ) ;
#299 = LINE ( 'NONE', #89, #335 ) ;
#300 = VERTEX_POINT ( 'NONE', #198 ) ;
#301 = PERSON_AND_ORGANIZATION_ROLE ( 'creator' ) ;
#302 = CARTESIAN_POINT ( 'NONE',  ( 6.982962677686266711E-14, 1.818458736477495370E-32, 20.00000000000000000 ) ) ;
#303 = DIRECTION ( 'NONE',  ( -3.491481338843133355E-15, 1.224646799147353207E-16, -1.000000000000000000 ) ) ;
#304 = AXIS2_PLACEMENT_3D ( 'NONE', #194, #117, #18 ) ;
#305 = AXIS2_PLACEMENT_3D ( 'NONE', #172, #271, #90 ) ;
#306 = DIRECTION ( 'NONE',  ( -3.176791660844933976E-31, -1.000000000000000000, -8.941873587509339851E-17 ) ) ;
#307 = VERTEX_POINT ( 'NONE', #223 ) ;
#308 = APPROVAL ( #252, 'UNSPECIFIED' ) ;
#309 = EDGE_LOOP ( 'NONE', ( #3, #188, #85, #130 ) ) ;
#310 = EDGE_CURVE ( 'NONE', #307, #24, #30, .T. ) ;
#311 = VECTOR ( 'NONE', #290, 999.9999999999998863 ) ;
#312 = ADVANCED_FACE ( 'NONE', ( #16 ), #233, .T. ) ;
#313 = AXIS2_PLACEMENT_3D ( 'NONE', #2, #183, #204 ) ;
#314 = DIRECTION ( 'NONE',  ( 0.0000000000000000000, 1.000000000000000000, 0.0000000000000000000 ) ) ;
#315 = LINE ( 'NONE', #218, #311 ) ;
#316 = APPROVAL_DATE_TIME ( #257, #84 ) ;
#317 =( NAMED_UNIT ( * ) SI_UNIT ( $, .STERADIAN. ) SOLID_ANGLE_UNIT ( ) );
#318 = DIRECTION ( 'NONE',  ( -3.491481338843133355E-15, 1.224646799147353207E-16, -1.000000000000000000 ) ) ;
#319 = CONICAL_SURFACE ( 'NONE', #238, 2.424999999999993161, 1.029744258676649649 ) ;
#320 = ADVANCED_FACE ( 'NONE', ( #201 ), #14, .T. ) ;
#321 = LINE ( 'NONE', #103, #149 ) ;
#322 = DIRECTION ( 'NONE',  ( 3.491481338843133355E-15, -1.224646799147353207E-16, 1.000000000000000000 ) ) ;
#323 = CARTESIAN_POINT ( 'NONE',  ( 6.982962677686266711E-14, -2.449293598294706513E-15, 20.00000000000000000 ) ) ;
#324 = PERSON_AND_ORGANIZATION ( #143, #206 ) ;
#325 = LINE ( 'NONE', #237, #263 ) ;
#326 = APPROVAL_PERSON_ORGANIZATION ( #62, #127, #43 ) ;
#327 = FACE_OUTER_BOUND ( 'NONE', #129, .T. ) ;
#328 = APPROVAL_STATUS ( 'not_yet_approved' ) ;
#329 = LOCAL_TIME ( 9, 22, 26.00000000000000000, #247 ) ;
#330 = PRODUCT_DEFINITION ( 'UNKNOWN', '', #249, #150 ) ;
#331 = CARTESIAN_POINT ( 'NONE',  ( 0.0000000000000000000, 0.0000000000000000000, 0.0000000000000000000 ) ) ;
#332 = EDGE_CURVE ( 'NONE', #181, #115, #123, .T. ) ;
#333 = CARTESIAN_POINT ( 'NONE',  ( 1.425748414066508021E-13, -2.425000000000007816, 61.50000000000000000 ) ) ;
#334 = EDGE_CURVE ( 'NONE', #240, #300, #325, .T. ) ;
#335 = VECTOR ( 'NONE', #246, 1000.000000000000000 ) ;
#336 = FACE_OUTER_BOUND ( 'NONE', #140, .T. ) ;
#337 = ORIENTED_EDGE ( 'NONE', *, *, #259, .F. ) ;
ENDSEC;
END-ISO-10303-21;
