ISO-10303-21;
HEADER;
FILE_DESCRIPTION (( 'STEP AP203' ),
    '1' );
FILE_NAME ('42523.step',
    '2021-09-03T07:22:26',
    ( '' ),
    ( '' ),
    'SwSTEP 2.0',
    'SolidWorks 2019',
    '' );
FILE_SCHEMA (( 'CONFIG_CONTROL_DESIGN' ));
ENDSEC;

DATA;
#1 = DIRECTION ( 'NONE',  ( -4.221216316465186746E-31, -1.000000000000000000, -1.188166764367679547E-16 ) ) ;
#2 = SHAPE_DEFINITION_REPRESENTATION ( #25, #186 ) ;
#3 = CARTESIAN_POINT ( 'NONE',  ( 3.828655890409370025E-15, -1.342911711732094150E-16, 1.096570629725306167 ) ) ;
#4 = DIRECTION ( 'NONE',  ( 1.000000000000000000, 0.0000000000000000000, 0.0000000000000000000 ) ) ;
#5 = PERSON_AND_ORGANIZATION ( #285, #259 ) ;
#6 = FACE_OUTER_BOUND ( 'NONE', #58, .T. ) ;
#7 = CARTESIAN_POINT ( 'NONE',  ( 2.832393602737255915E-14, -1.824999999999997957, 15.00000000000000000 ) ) ;
#8 = VECTOR ( 'NONE', #152, 1000.000000000000000 ) ;
#9 = CARTESIAN_POINT ( 'NONE',  ( 0.0000000000000000000, 0.0000000000000000000, 0.0000000000000000000 ) ) ;
#10 = DIRECTION ( 'NONE',  ( 0.0000000000000000000, 1.000000000000000000, 0.0000000000000000000 ) ) ;
#11 = ADVANCED_FACE ( 'NONE', ( #271 ), #169, .F. ) ;
#12 = DATE_AND_TIME ( #248, #63 ) ;
#13 = CIRCLE ( 'NONE', #113, 1.824999999999996181 ) ;
#14 = ORIENTED_EDGE ( 'NONE', *, *, #238, .F. ) ;
#15 = LOCAL_TIME ( 9, 22, 26.00000000000000000, #31 ) ;
#16 = ORIENTED_EDGE ( 'NONE', *, *, #163, .F. ) ;
#17 = DIRECTION ( 'NONE',  ( 4.275831445896959482E-31, 1.000000000000000000, 1.224646799147353207E-16 ) ) ;
#18 = DIRECTION ( 'NONE',  ( -3.491481338843133355E-15, 1.224646799147353454E-16, -1.000000000000000000 ) ) ;
#19 = ORIENTED_EDGE ( 'NONE', *, *, #195, .F. ) ;
#20 = CONICAL_SURFACE ( 'NONE', #23, 1.824999999999994627, 1.029744258676649649 ) ;
#21 = EDGE_LOOP ( 'NONE', ( #107, #215, #151 ) ) ;
#22 = EDGE_CURVE ( 'NONE', #121, #323, #316, .T. ) ;
#23 = AXIS2_PLACEMENT_3D ( 'NONE', #69, #76, #188 ) ;
#24 = CIRCLE ( 'NONE', #273, 1.825000000000000622 ) ;
#25 = PRODUCT_DEFINITION_SHAPE ( 'NONE', 'NONE',  #89 ) ;
#26 = CC_DESIGN_PERSON_AND_ORGANIZATION_ASSIGNMENT ( #110, #283, ( #241 ) ) ;
#27 = CYLINDRICAL_SURFACE ( 'NONE', #39, 1.824999999999998401 ) ;
#28 = LINE ( 'NONE', #138, #204 ) ;
#29 = AXIS2_PLACEMENT_3D ( 'NONE', #201, #41, #157 ) ;
#30 =( NAMED_UNIT ( * ) SI_UNIT ( $, .STERADIAN. ) SOLID_ANGLE_UNIT ( ) );
#31 = COORDINATED_UNIVERSAL_TIME_OFFSET ( 1, 0, .AHEAD. ) ;
#32 = APPROVAL ( #35, 'UNSPECIFIED' ) ;
#33 = DIRECTION ( 'NONE',  ( -3.491481338843133355E-15, 1.224646799147353454E-16, -1.000000000000000000 ) ) ;
#34 = DIRECTION ( 'NONE',  ( 4.275831445896959482E-31, 1.000000000000000000, 1.224646799147353454E-16 ) ) ;
#35 = APPROVAL_STATUS ( 'not_yet_approved' ) ;
#36 = EDGE_CURVE ( 'NONE', #318, #323, #13, .T. ) ;
#37 = ORIENTED_EDGE ( 'NONE', *, *, #36, .F. ) ;
#38 = CARTESIAN_POINT ( 'NONE',  ( 1.810577384569357556E-13, -1.425000000000006928, 52.00000000000000000 ) ) ;
#39 = AXIS2_PLACEMENT_3D ( 'NONE', #109, #208, #133 ) ;
#40 = APPROVAL_PERSON_ORGANIZATION ( #279, #79, #288 ) ;
#41 = DIRECTION ( 'NONE',  ( -3.491481338843133355E-15, 1.224646799147353454E-16, -1.000000000000000000 ) ) ;
#42 = ORIENTED_EDGE ( 'NONE', *, *, #96, .F. ) ;
#43 = AXIS2_PLACEMENT_3D ( 'NONE', #310, #78, #1 ) ;
#44 = EDGE_CURVE ( 'NONE', #223, #121, #172, .T. ) ;
#45 = CARTESIAN_POINT ( 'NONE',  ( 5.237222008264700033E-14, -1.836970198721029983E-15, 15.00000000000000000 ) ) ;
#46 = DIRECTION ( 'NONE',  ( 4.275831445896959482E-31, 1.000000000000000000, 1.224646799147353454E-16 ) ) ;
#47 = DATE_TIME_ROLE ( 'classification_date' ) ;
#48 = AXIS2_PLACEMENT_3D ( 'NONE', #143, #240, #10 ) ;
#49 = ADVANCED_FACE ( 'NONE', ( #200 ), #66, .T. ) ;
#50 = CC_DESIGN_APPROVAL ( #32, ( #89 ) ) ;
#51 = ORIENTED_EDGE ( 'NONE', *, *, #44, .T. ) ;
#52 = CARTESIAN_POINT ( 'NONE',  ( 2.234980408443909847E-16, -1.824999999999998401, -2.234980408443926117E-16 ) ) ;
#53 = AXIS2_PLACEMENT_3D ( 'NONE', #56, #170, #34 ) ;
#54 = CALENDAR_DATE ( 2021, 3, 9 ) ;
#55 = MANIFOLD_SOLID_BREP ( 'Corps-Déplacer/Copier1[1]', #312 ) ;
#56 = CARTESIAN_POINT ( 'NONE',  ( 1.815570296198429345E-13, 1.068578845146565198E-32, 52.00000000000000000 ) ) ;
#57 = ADVANCED_FACE ( 'NONE', ( #330 ), #105, .T. ) ;
#58 = EDGE_LOOP ( 'NONE', ( #42, #132, #147 ) ) ;
#59 = MANIFOLD_SOLID_BREP ( 'Corps-Déplacer/Copier1[2]', #224 ) ;
#60 = CARTESIAN_POINT ( 'NONE',  ( 0.0000000000000000000, 0.0000000000000000000, 0.0000000000000000000 ) ) ;
#61 = APPROVAL_ROLE ( '' ) ;
#62 = EDGE_LOOP ( 'NONE', ( #267, #14 ) ) ;
#63 = LOCAL_TIME ( 9, 22, 26.00000000000000000, #245 ) ;
#64 = DIRECTION ( 'NONE',  ( -3.491481338843133355E-15, 1.224646799147353454E-16, -1.000000000000000000 ) ) ;
#65 = ORIENTED_EDGE ( 'NONE', *, *, #234, .F. ) ;
#66 = CYLINDRICAL_SURFACE ( 'NONE', #294, 1.824999999999995515 ) ;
#67 = AXIS2_PLACEMENT_3D ( 'NONE', #9, #252, #17 ) ;
#68 = ORIENTED_EDGE ( 'NONE', *, *, #73, .F. ) ;
#69 = CARTESIAN_POINT ( 'NONE',  ( 3.828655890409370025E-15, -1.342911711732094150E-16, 1.096570629725306167 ) ) ;
#70 = VERTEX_POINT ( 'NONE', #250 ) ;
#71 = DIRECTION ( 'NONE',  ( 3.491481338843133355E-15, -1.224646799147353454E-16, 1.000000000000000000 ) ) ;
#72 = DIRECTION ( 'NONE',  ( -3.491481338843133355E-15, 1.224646799147353454E-16, -1.000000000000000000 ) ) ;
#73 = EDGE_CURVE ( 'NONE', #223, #318, #261, .T. ) ;
#74 = LINE ( 'NONE', #166, #140 ) ;
#75 = CIRCLE ( 'NONE', #197, 1.824999999999994627 ) ;
#76 = DIRECTION ( 'NONE',  ( 3.491481338843133355E-15, -1.224646799147353454E-16, 1.000000000000000000 ) ) ;
#77 = CARTESIAN_POINT ( 'NONE',  ( 4.052153931253762144E-15, 1.824999999999994404, 1.096570629725306389 ) ) ;
#78 = DIRECTION ( 'NONE',  ( 3.491481338843133355E-15, -1.224646799147353454E-16, 1.000000000000000000 ) ) ;
#79 = APPROVAL ( #260, 'UNSPECIFIED' ) ;
#80 = DIRECTION ( 'NONE',  ( -3.491481338843133355E-15, 1.224646799147353454E-16, -1.000000000000000000 ) ) ;
#81 = CC_DESIGN_APPROVAL ( #79, ( #241 ) ) ;
#82 = CARTESIAN_POINT ( 'NONE',  ( 4.052153931253762144E-15, 1.824999999999994404, 1.096570629725306389 ) ) ;
#83 = MECHANICAL_CONTEXT ( 'NONE', #243, 'mechanical' ) ;
#84 = ORIENTED_EDGE ( 'NONE', *, *, #311, .F. ) ;
#85 = APPROVAL_DATE_TIME ( #207, #79 ) ;
#86 = CARTESIAN_POINT ( 'NONE',  ( 1.801604370843056559E-13, 1.824999999999994404, 51.59999999999999432 ) ) ;
#87 = APPROVAL_DATE_TIME ( #168, #278 ) ;
#88 = CARTESIAN_POINT ( 'NONE',  ( 7.803392388761944333E-31, 1.824999999999998401, 2.234980408443918229E-16 ) ) ;
#89 = PRODUCT_DEFINITION ( 'UNKNOWN', '', #108, #128 ) ;
#90 = ORIENTED_EDGE ( 'NONE', *, *, #234, .T. ) ;
#91 = APPLICATION_CONTEXT ( 'configuration controlled 3d designs of mechanical parts and assemblies' ) ;
#92 = AXIS2_PLACEMENT_3D ( 'NONE', #199, #64, #179 ) ;
#93 = APPROVAL_DATE_TIME ( #315, #32 ) ;
#94 = CARTESIAN_POINT ( 'NONE',  ( 5.237222008264700033E-14, 1.368530801678940004E-32, 15.00000000000000000 ) ) ;
#95 = DIRECTION ( 'NONE',  ( 0.0000000000000000000, 0.0000000000000000000, 1.000000000000000000 ) ) ;
#96 = EDGE_CURVE ( 'NONE', #120, #298, #135, .T. ) ;
#97 = CARTESIAN_POINT ( 'NONE',  ( 0.0000000000000000000, 0.0000000000000000000, 0.0000000000000000000 ) ) ;
#98 = EDGE_CURVE ( 'NONE', #70, #121, #28, .T. ) ;
#99 =( NAMED_UNIT ( * ) PLANE_ANGLE_UNIT ( ) SI_UNIT ( $, .RADIAN. ) );
#100 = AXIS2_PLACEMENT_3D ( 'NONE', #239, #141, #115 ) ;
#101 = EDGE_LOOP ( 'NONE', ( #90, #251, #16, #19 ) ) ;
#102 = DIRECTION ( 'NONE',  ( -3.491481338843133355E-15, 1.224646799147353454E-16, -1.000000000000000000 ) ) ;
#103 = PLANE ( 'NONE',  #237 ) ;
#104 = CARTESIAN_POINT ( 'NONE',  ( 1.815570296198429345E-13, -6.368163355566237959E-15, 52.00000000000000000 ) ) ;
#105 = CYLINDRICAL_SURFACE ( 'NONE', #320, 1.824999999999998401 ) ;
#106 = CIRCLE ( 'NONE', #48, 1.425000000000000711 ) ;
#107 = ORIENTED_EDGE ( 'NONE', *, *, #118, .F. ) ;
#108 = PRODUCT_DEFINITION_FORMATION_WITH_SPECIFIED_SOURCE ( 'ANY', '', #189, .NOT_KNOWN. ) ;
#109 = CARTESIAN_POINT ( 'NONE',  ( 0.0000000000000000000, 0.0000000000000000000, 0.0000000000000000000 ) ) ;
#110 = PERSON_AND_ORGANIZATION ( #285, #259 ) ;
#111 = DIRECTION ( 'NONE',  ( -4.275831445896959482E-31, -1.000000000000000000, -1.224646799147353454E-16 ) ) ;
#112 = CARTESIAN_POINT ( 'NONE',  ( 5.237222008264700033E-14, -1.836970198721029983E-15, 15.00000000000000000 ) ) ;
#113 = AXIS2_PLACEMENT_3D ( 'NONE', #226, #102, #280 ) ;
#114 = CALENDAR_DATE ( 2021, 3, 9 ) ;
#115 = DIRECTION ( 'NONE',  ( 4.221216316465186746E-31, 1.000000000000000000, 1.188166764367679547E-16 ) ) ;
#116 = FACE_OUTER_BOUND ( 'NONE', #274, .T. ) ;
#117 = LOCAL_TIME ( 9, 22, 26.00000000000000000, #335 ) ;
#118 = EDGE_CURVE ( 'NONE', #120, #176, #210, .T. ) ;
#119 = ORIENTED_EDGE ( 'NONE', *, *, #162, .T. ) ;
#120 = VERTEX_POINT ( 'NONE', #97 ) ;
#121 = VERTEX_POINT ( 'NONE', #86 ) ;
#122 = APPLICATION_PROTOCOL_DEFINITION ( 'international standard', 'config_control_design', 1994, #243 ) ;
#123 = ORIENTED_EDGE ( 'NONE', *, *, #229, .T. ) ;
#124 = DATE_TIME_ROLE ( 'creation_date' ) ;
#125 = ORIENTED_EDGE ( 'NONE', *, *, #238, .T. ) ;
#126 = ORIENTED_EDGE ( 'NONE', *, *, #98, .T. ) ;
#127 =( GEOMETRIC_REPRESENTATION_CONTEXT ( 3 ) GLOBAL_UNCERTAINTY_ASSIGNED_CONTEXT ( ( #304 ) ) GLOBAL_UNIT_ASSIGNED_CONTEXT ( ( #221, #99, #30 ) ) REPRESENTATION_CONTEXT ( 'NONE', 'WORKASPACE' ) );
#128 = DESIGN_CONTEXT ( 'detailed design', #91, 'design' ) ;
#129 = FACE_OUTER_BOUND ( 'NONE', #244, .T. ) ;
#130 = CARTESIAN_POINT ( 'NONE',  ( 1.164898266243206611E-13, -1.824999999999997957, 15.00000000000000000 ) ) ;
#131 = CARTESIAN_POINT ( 'NONE',  ( 2.234980408443906396E-16, -1.824999999999995515, -2.234980408443922173E-16 ) ) ;
#132 = ORIENTED_EDGE ( 'NONE', *, *, #118, .T. ) ;
#133 = DIRECTION ( 'NONE',  ( 4.275831445896959482E-31, 1.000000000000000000, 1.224646799147353454E-16 ) ) ;
#134 = ADVANCED_FACE ( 'NONE', ( #116 ), #171, .T. ) ;
#135 = LINE ( 'NONE', #263, #299 ) ;
#136 = CIRCLE ( 'NONE', #173, 1.824999999999996181 ) ;
#137 = FACE_OUTER_BOUND ( 'NONE', #266, .T. ) ;
#138 = CARTESIAN_POINT ( 'NONE',  ( 1.815570296198429345E-13, 1.424999999999994493, 52.00000000000000000 ) ) ;
#139 = EDGE_CURVE ( 'NONE', #181, #298, #254, .T. ) ;
#140 = VECTOR ( 'NONE', #319, 999.9999999999998863 ) ;
#141 = DIRECTION ( 'NONE',  ( -3.491481338843133355E-15, 1.224646799147353454E-16, -1.000000000000000000 ) ) ;
#142 = DIRECTION ( 'NONE',  ( 4.221216316465186746E-31, 1.000000000000000000, 1.188166764367679547E-16 ) ) ;
#143 = CARTESIAN_POINT ( 'NONE',  ( 1.815570296198429345E-13, -6.368163355566237959E-15, 52.00000000000000000 ) ) ;
#144 = COORDINATED_UNIVERSAL_TIME_OFFSET ( 1, 0, .AHEAD. ) ;
#145 = VERTEX_POINT ( 'NONE', #38 ) ;
#146 = DIRECTION ( 'NONE',  ( 0.0000000000000000000, 1.000000000000000000, 0.0000000000000000000 ) ) ;
#147 = ORIENTED_EDGE ( 'NONE', *, *, #163, .T. ) ;
#148 = CC_DESIGN_PERSON_AND_ORGANIZATION_ASSIGNMENT ( #313, #290, ( #108 ) ) ;
#149 = CALENDAR_DATE ( 2021, 3, 9 ) ;
#150 = ORIENTED_EDGE ( 'NONE', *, *, #334, .F. ) ;
#151 = ORIENTED_EDGE ( 'NONE', *, *, #253, .T. ) ;
#152 = DIRECTION ( 'NONE',  ( -3.491481338843133355E-15, 1.224646799147353454E-16, -1.000000000000000000 ) ) ;
#153 = ORIENTED_EDGE ( 'NONE', *, *, #334, .T. ) ;
#154 = CC_DESIGN_PERSON_AND_ORGANIZATION_ASSIGNMENT ( #202, #230, ( #189 ) ) ;
#155 = ORIENTED_EDGE ( 'NONE', *, *, #44, .F. ) ;
#156 = VECTOR ( 'NONE', #80, 1000.000000000000000 ) ;
#157 = DIRECTION ( 'NONE',  ( 0.0000000000000000000, 1.000000000000000000, 0.0000000000000000000 ) ) ;
#158 = ORIENTED_EDGE ( 'NONE', *, *, #195, .T. ) ;
#159 = ADVANCED_FACE ( 'NONE', ( #129 ), #209, .T. ) ;
#160 = VECTOR ( 'NONE', #287, 999.9999999999998863 ) ;
#161 = LOCAL_TIME ( 9, 22, 26.00000000000000000, #270 ) ;
#162 = EDGE_CURVE ( 'NONE', #70, #145, #325, .T. ) ;
#163 = EDGE_CURVE ( 'NONE', #176, #298, #75, .T. ) ;
#164 = DIRECTION ( 'NONE',  ( 1.798245827342160317E-15, -0.8571673007021098911, 0.5150380749100582634 ) ) ;
#165 = VECTOR ( 'NONE', #275, 1000.000000000000000 ) ;
#166 = CARTESIAN_POINT ( 'NONE',  ( 1.817315417887214276E-13, -1.425000000000006928, 52.00000000000000000 ) ) ;
#167 = APPROVAL_PERSON_ORGANIZATION ( #326, #32, #61 ) ;
#168 = DATE_AND_TIME ( #54, #15 ) ;
#169 = PLANE ( 'NONE',  #284 ) ;
#170 = DIRECTION ( 'NONE',  ( -3.491481338843133355E-15, 1.224646799147353454E-16, -1.000000000000000000 ) ) ;
#171 = CYLINDRICAL_SURFACE ( 'NONE', #67, 1.824999999999995515 ) ;
#172 = CIRCLE ( 'NONE', #29, 1.825000000000000622 ) ;
#173 = AXIS2_PLACEMENT_3D ( 'NONE', #45, #18, #303 ) ;
#174 = AXIS2_PLACEMENT_3D ( 'NONE', #104, #175, #302 ) ;
#175 = DIRECTION ( 'NONE',  ( -3.491481338843133355E-15, 1.224646799147353454E-16, -1.000000000000000000 ) ) ;
#176 = VERTEX_POINT ( 'NONE', #82 ) ;
#177 = ORIENTED_EDGE ( 'NONE', *, *, #22, .T. ) ;
#178 = DIRECTION ( 'NONE',  ( -3.491481338843133355E-15, 1.224646799147353454E-16, -1.000000000000000000 ) ) ;
#179 = DIRECTION ( 'NONE',  ( 0.0000000000000000000, 1.000000000000000000, 0.0000000000000000000 ) ) ;
#180 = DIRECTION ( 'NONE',  ( 0.0000000000000000000, 1.000000000000000000, 0.0000000000000000000 ) ) ;
#181 = VERTEX_POINT ( 'NONE', #7 ) ;
#182 = CARTESIAN_POINT ( 'NONE',  ( 5.237222008264700033E-14, -1.836970198721029983E-15, 15.00000000000000000 ) ) ;
#183 = CC_DESIGN_PERSON_AND_ORGANIZATION_ASSIGNMENT ( #193, #292, ( #89 ) ) ;
#184 = CARTESIAN_POINT ( 'NONE',  ( 1.815570296198429345E-13, -6.368163355566237959E-15, 52.00000000000000000 ) ) ;
#185 = DATE_AND_TIME ( #114, #117 ) ;
#186 = ADVANCED_BREP_SHAPE_REPRESENTATION ( '42523', ( #55, #59, #300 ), #127 ) ;
#187 = AXIS2_PLACEMENT_3D ( 'NONE', #112, #255, #329 ) ;
#188 = DIRECTION ( 'NONE',  ( -4.221216316465186746E-31, -1.000000000000000000, -1.188166764367679547E-16 ) ) ;
#189 = PRODUCT ( '42523', '42523', '', ( #83 ) ) ;
#190 = PLANE ( 'NONE',  #53 ) ;
#191 = PERSON_AND_ORGANIZATION_ROLE ( 'creator' ) ;
#192 = ADVANCED_FACE ( 'NONE', ( #314 ), #190, .F. ) ;
#193 = PERSON_AND_ORGANIZATION ( #285, #259 ) ;
#194 = AXIS2_PLACEMENT_3D ( 'NONE', #182, #33, #146 ) ;
#195 = EDGE_CURVE ( 'NONE', #322, #176, #196, .T. ) ;
#196 = LINE ( 'NONE', #309, #308 ) ;
#197 = AXIS2_PLACEMENT_3D ( 'NONE', #3, #212, #142 ) ;
#198 = CC_DESIGN_SECURITY_CLASSIFICATION ( #241, ( #108 ) ) ;
#199 = CARTESIAN_POINT ( 'NONE',  ( 1.815570296198429345E-13, -6.368163355566237959E-15, 52.00000000000000000 ) ) ;
#200 = FACE_OUTER_BOUND ( 'NONE', #101, .T. ) ;
#201 = CARTESIAN_POINT ( 'NONE',  ( 1.801604370843056559E-13, -6.319177483600343742E-15, 51.59999999999999432 ) ) ;
#202 = PERSON_AND_ORGANIZATION ( #285, #259 ) ;
#203 = CARTESIAN_POINT ( 'NONE',  ( 5.237222008264700033E-14, 1.824999999999994404, 15.00000000000000000 ) ) ;
#204 = VECTOR ( 'NONE', #236, 1000.000000000000000 ) ;
#205 = CARTESIAN_POINT ( 'NONE',  ( 0.0000000000000000000, 0.0000000000000000000, 0.0000000000000000000 ) ) ;
#206 = ORIENTED_EDGE ( 'NONE', *, *, #139, .F. ) ;
#207 = DATE_AND_TIME ( #291, #289 ) ;
#208 = DIRECTION ( 'NONE',  ( -3.491481338843133355E-15, 1.224646799147353454E-16, -1.000000000000000000 ) ) ;
#209 = CONICAL_SURFACE ( 'NONE', #174, 1.425000000000000711, 0.7853981633974426169 ) ;
#210 = LINE ( 'NONE', #77, #160 ) ;
#211 = FACE_OUTER_BOUND ( 'NONE', #281, .T. ) ;
#212 = DIRECTION ( 'NONE',  ( -3.491481338843133355E-15, 1.224646799147353454E-16, -1.000000000000000000 ) ) ;
#213 = APPROVAL_PERSON_ORGANIZATION ( #296, #278, #337 ) ;
#214 = DIRECTION ( 'NONE',  ( -4.275831445896959482E-31, -1.000000000000000000, -1.224646799147353454E-16 ) ) ;
#215 = ORIENTED_EDGE ( 'NONE', *, *, #96, .T. ) ;
#216 = DIRECTION ( 'NONE',  ( 3.491481338843133355E-15, -1.224646799147353454E-16, 1.000000000000000000 ) ) ;
#217 = ADVANCED_FACE ( 'NONE', ( #233 ), #20, .T. ) ;
#218 = EDGE_LOOP ( 'NONE', ( #123, #249 ) ) ;
#219 = AXIS2_PLACEMENT_3D ( 'NONE', #184, #307, #306 ) ;
#220 = ORIENTED_EDGE ( 'NONE', *, *, #333, .T. ) ;
#221 =( LENGTH_UNIT ( ) NAMED_UNIT ( * ) SI_UNIT ( .MILLI., .METRE. ) );
#222 = ORIENTED_EDGE ( 'NONE', *, *, #253, .F. ) ;
#223 = VERTEX_POINT ( 'NONE', #286 ) ;
#224 = CLOSED_SHELL ( 'NONE', ( #49, #264, #217, #134, #268 ) ) ;
#225 = CC_DESIGN_APPROVAL ( #278, ( #108 ) ) ;
#226 = CARTESIAN_POINT ( 'NONE',  ( 5.237222008264700033E-14, -1.836970198721029983E-15, 15.00000000000000000 ) ) ;
#227 = APPROVAL_STATUS ( 'not_yet_approved' ) ;
#228 = DIRECTION ( 'NONE',  ( -3.491481338843133355E-15, 1.224646799147353454E-16, -1.000000000000000000 ) ) ;
#229 = EDGE_CURVE ( 'NONE', #323, #318, #247, .T. ) ;
#230 = PERSON_AND_ORGANIZATION_ROLE ( 'design_owner' ) ;
#231 = CONICAL_SURFACE ( 'NONE', #219, 1.425000000000000711, 0.7853981633974426169 ) ;
#232 = CARTESIAN_POINT ( 'NONE',  ( 5.237222008264700033E-14, 1.368530801678940004E-32, 15.00000000000000000 ) ) ;
#233 = FACE_OUTER_BOUND ( 'NONE', #21, .T. ) ;
#234 = EDGE_CURVE ( 'NONE', #322, #181, #262, .T. ) ;
#235 = FACE_OUTER_BOUND ( 'NONE', #246, .T. ) ;
#236 = DIRECTION ( 'NONE',  ( -2.468850131082279149E-15, 0.7071067811865435759, -0.7071067811865514585 ) ) ;
#237 = AXIS2_PLACEMENT_3D ( 'NONE', #232, #71, #111 ) ;
#238 = EDGE_CURVE ( 'NONE', #145, #70, #106, .T. ) ;
#239 = CARTESIAN_POINT ( 'NONE',  ( 3.828655890409370025E-15, -1.342911711732094150E-16, 1.096570629725306167 ) ) ;
#240 = DIRECTION ( 'NONE',  ( -3.491481338843133355E-15, 1.224646799147353454E-16, -1.000000000000000000 ) ) ;
#241 = SECURITY_CLASSIFICATION ( '', '', #317 ) ;
#242 = PRODUCT_RELATED_PRODUCT_CATEGORY ( 'detail', '', ( #189 ) ) ;
#243 = APPLICATION_CONTEXT ( 'configuration controlled 3d designs of mechanical parts and assemblies' ) ;
#244 = EDGE_LOOP ( 'NONE', ( #84, #125, #126, #155 ) ) ;
#245 = COORDINATED_UNIVERSAL_TIME_OFFSET ( 1, 0, .AHEAD. ) ;
#246 = EDGE_LOOP ( 'NONE', ( #119, #293, #150, #257 ) ) ;
#247 = CIRCLE ( 'NONE', #187, 1.824999999999996181 ) ;
#248 = CALENDAR_DATE ( 2021, 3, 9 ) ;
#249 = ORIENTED_EDGE ( 'NONE', *, *, #36, .T. ) ;
#250 = CARTESIAN_POINT ( 'NONE',  ( 1.815570296198429345E-13, 1.424999999999994493, 52.00000000000000000 ) ) ;
#251 = ORIENTED_EDGE ( 'NONE', *, *, #139, .T. ) ;
#252 = DIRECTION ( 'NONE',  ( -3.491481338843133355E-15, 1.224646799147353454E-16, -1.000000000000000000 ) ) ;
#253 = EDGE_CURVE ( 'NONE', #298, #176, #265, .T. ) ;
#254 = LINE ( 'NONE', #131, #8 ) ;
#255 = DIRECTION ( 'NONE',  ( -3.491481338843133355E-15, 1.224646799147353454E-16, -1.000000000000000000 ) ) ;
#256 = DIRECTION ( 'NONE',  ( 4.275831445896959482E-31, 1.000000000000000000, 1.224646799147353207E-16 ) ) ;
#257 = ORIENTED_EDGE ( 'NONE', *, *, #98, .F. ) ;
#258 = CC_DESIGN_DATE_AND_TIME_ASSIGNMENT ( #12, #124, ( #89 ) ) ;
#259 = ORGANIZATION ( 'UNSPECIFIED', 'UNSPECIFIED', '' ) ;
#260 = APPROVAL_STATUS ( 'not_yet_approved' ) ;
#261 = LINE ( 'NONE', #52, #156 ) ;
#262 = CIRCLE ( 'NONE', #194, 1.824999999999996181 ) ;
#263 = CARTESIAN_POINT ( 'NONE',  ( 3.828655890409369236E-15, -1.824999999999994849, 1.096570629725305945 ) ) ;
#264 = ADVANCED_FACE ( 'NONE', ( #6 ), #332, .T. ) ;
#265 = CIRCLE ( 'NONE', #100, 1.824999999999994627 ) ;
#266 = EDGE_LOOP ( 'NONE', ( #68, #51, #177, #37 ) ) ;
#267 = ORIENTED_EDGE ( 'NONE', *, *, #162, .F. ) ;
#268 = ADVANCED_FACE ( 'NONE', ( #211 ), #103, .T. ) ;
#269 = APPLICATION_PROTOCOL_DEFINITION ( 'international standard', 'config_control_design', 1994, #91 ) ;
#270 = COORDINATED_UNIVERSAL_TIME_OFFSET ( 1, 0, .AHEAD. ) ;
#271 = FACE_OUTER_BOUND ( 'NONE', #218, .T. ) ;
#272 = ADVANCED_FACE ( 'NONE', ( #137 ), #27, .T. ) ;
#273 = AXIS2_PLACEMENT_3D ( 'NONE', #327, #178, #180 ) ;
#274 = EDGE_LOOP ( 'NONE', ( #206, #220, #158, #222 ) ) ;
#275 = DIRECTION ( 'NONE',  ( -3.491481338843133355E-15, 1.224646799147353454E-16, -1.000000000000000000 ) ) ;
#276 = CARTESIAN_POINT ( 'NONE',  ( 5.237222008264700033E-14, 1.824999999999994404, 15.00000000000000000 ) ) ;
#277 = ORIENTED_EDGE ( 'NONE', *, *, #229, .F. ) ;
#278 = APPROVAL ( #227, 'UNSPECIFIED' ) ;
#279 = PERSON_AND_ORGANIZATION ( #285, #259 ) ;
#280 = DIRECTION ( 'NONE',  ( 0.0000000000000000000, 1.000000000000000000, 0.0000000000000000000 ) ) ;
#281 = EDGE_LOOP ( 'NONE', ( #65, #305 ) ) ;
#282 = DIRECTION ( 'NONE',  ( -3.491481338843133355E-15, 1.224646799147353454E-16, -1.000000000000000000 ) ) ;
#283 = PERSON_AND_ORGANIZATION_ROLE ( 'classification_officer' ) ;
#284 = AXIS2_PLACEMENT_3D ( 'NONE', #94, #216, #214 ) ;
#285 = PERSON ( 'UNSPECIFIED', 'UNSPECIFIED', 'UNSPECIFIED', ('UNSPECIFIED'), ('UNSPECIFIED'), ('UNSPECIFIED') ) ;
#286 = CARTESIAN_POINT ( 'NONE',  ( 1.164898266243205348E-13, -1.825000000000007061, 51.59999999999999432 ) ) ;
#287 = DIRECTION ( 'NONE',  ( 1.903218546456022717E-15, 0.8571673007021097801, 0.5150380749100585964 ) ) ;
#288 = APPROVAL_ROLE ( '' ) ;
#289 = LOCAL_TIME ( 9, 22, 26.00000000000000000, #144 ) ;
#290 = PERSON_AND_ORGANIZATION_ROLE ( 'design_supplier' ) ;
#291 = CALENDAR_DATE ( 2021, 3, 9 ) ;
#292 = PERSON_AND_ORGANIZATION_ROLE ( 'creator' ) ;
#293 = ORIENTED_EDGE ( 'NONE', *, *, #311, .T. ) ;
#294 = AXIS2_PLACEMENT_3D ( 'NONE', #328, #228, #256 ) ;
#295 = ORIENTED_EDGE ( 'NONE', *, *, #22, .F. ) ;
#296 = PERSON_AND_ORGANIZATION ( #285, #259 ) ;
#297 = ORIENTED_EDGE ( 'NONE', *, *, #73, .T. ) ;
#298 = VERTEX_POINT ( 'NONE', #331 ) ;
#299 = VECTOR ( 'NONE', #164, 1000.000000000000000 ) ;
#300 = AXIS2_PLACEMENT_3D ( 'NONE', #60, #95, #4 ) ;
#301 = ADVANCED_FACE ( 'NONE', ( #235 ), #231, .T. ) ;
#302 = DIRECTION ( 'NONE',  ( 0.0000000000000000000, 1.000000000000000000, 0.0000000000000000000 ) ) ;
#303 = DIRECTION ( 'NONE',  ( 0.0000000000000000000, 1.000000000000000000, 0.0000000000000000000 ) ) ;
#304 = UNCERTAINTY_MEASURE_WITH_UNIT (LENGTH_MEASURE( 1.000000000000000082E-05 ), #221, 'distance_accuracy_value', 'NONE');
#305 = ORIENTED_EDGE ( 'NONE', *, *, #333, .F. ) ;
#306 = DIRECTION ( 'NONE',  ( 0.0000000000000000000, 1.000000000000000000, 0.0000000000000000000 ) ) ;
#307 = DIRECTION ( 'NONE',  ( -3.491481338843133355E-15, 1.224646799147353454E-16, -1.000000000000000000 ) ) ;
#308 = VECTOR ( 'NONE', #72, 1000.000000000000000 ) ;
#309 = CARTESIAN_POINT ( 'NONE',  ( 7.803392388761932072E-31, 1.824999999999995515, 2.234980408443914284E-16 ) ) ;
#310 = CARTESIAN_POINT ( 'NONE',  ( 3.828655890409370025E-15, -1.342911711732094150E-16, 1.096570629725306167 ) ) ;
#311 = EDGE_CURVE ( 'NONE', #145, #223, #74, .T. ) ;
#312 = CLOSED_SHELL ( 'NONE', ( #301, #57, #11, #272, #159, #192 ) ) ;
#313 = PERSON_AND_ORGANIZATION ( #285, #259 ) ;
#314 = FACE_OUTER_BOUND ( 'NONE', #62, .T. ) ;
#315 = DATE_AND_TIME ( #149, #161 ) ;
#316 = LINE ( 'NONE', #88, #165 ) ;
#317 = SECURITY_CLASSIFICATION_LEVEL ( 'unclassified' ) ;
#318 = VERTEX_POINT ( 'NONE', #130 ) ;
#319 = DIRECTION ( 'NONE',  ( -2.382254525458730880E-15, -0.7071067811865434649, -0.7071067811865516806 ) ) ;
#320 = AXIS2_PLACEMENT_3D ( 'NONE', #205, #282, #46 ) ;
#321 = CC_DESIGN_PERSON_AND_ORGANIZATION_ASSIGNMENT ( #5, #191, ( #108 ) ) ;
#322 = VERTEX_POINT ( 'NONE', #276 ) ;
#323 = VERTEX_POINT ( 'NONE', #203 ) ;
#324 = EDGE_LOOP ( 'NONE', ( #153, #297, #277, #295 ) ) ;
#325 = CIRCLE ( 'NONE', #92, 1.425000000000000711 ) ;
#326 = PERSON_AND_ORGANIZATION ( #285, #259 ) ;
#327 = CARTESIAN_POINT ( 'NONE',  ( 1.801604370843056559E-13, -6.319177483600343742E-15, 51.59999999999999432 ) ) ;
#328 = CARTESIAN_POINT ( 'NONE',  ( 0.0000000000000000000, 0.0000000000000000000, 0.0000000000000000000 ) ) ;
#329 = DIRECTION ( 'NONE',  ( 0.0000000000000000000, 1.000000000000000000, 0.0000000000000000000 ) ) ;
#330 = FACE_OUTER_BOUND ( 'NONE', #324, .T. ) ;
#331 = CARTESIAN_POINT ( 'NONE',  ( 3.828655890409369236E-15, -1.824999999999994849, 1.096570629725305945 ) ) ;
#332 = CONICAL_SURFACE ( 'NONE', #43, 1.824999999999994627, 1.029744258676649649 ) ;
#333 = EDGE_CURVE ( 'NONE', #181, #322, #136, .T. ) ;
#334 = EDGE_CURVE ( 'NONE', #121, #223, #24, .T. ) ;
#335 = COORDINATED_UNIVERSAL_TIME_OFFSET ( 1, 0, .AHEAD. ) ;
#336 = CC_DESIGN_DATE_AND_TIME_ASSIGNMENT ( #185, #47, ( #241 ) ) ;
#337 = APPROVAL_ROLE ( '' ) ;
ENDSEC;
END-ISO-10303-21;
