ISO-10303-21;
HEADER;
FILE_DESCRIPTION (( 'STEP AP203' ),
    '1' );
FILE_NAME ('42522.step',
    '2021-09-03T07:22:25',
    ( '' ),
    ( '' ),
    'SwSTEP 2.0',
    'SolidWorks 2019',
    '' );
FILE_SCHEMA (( 'CONFIG_CONTROL_DESIGN' ));
ENDSEC;

DATA;
#1 = CARTESIAN_POINT ( 'NONE',  ( 1.745121688784968416E-16, -1.424999999999996714, -1.745121688784980249E-16 ) ) ;
#2 = CARTESIAN_POINT ( 'NONE',  ( 4.189777606611760026E-14, -1.469576158976823947E-15, 12.00000000000000000 ) ) ;
#3 = DIRECTION ( 'NONE',  ( 3.491481338843133355E-15, -1.224646799147353207E-16, 1.000000000000000000 ) ) ;
#4 = CARTESIAN_POINT ( 'NONE',  ( 4.189777606611760026E-14, 1.424999999999993383, 12.00000000000000000 ) ) ;
#5 = DIRECTION ( 'NONE',  ( -3.491481338843133355E-15, 1.224646799147353207E-16, -1.000000000000000000 ) ) ;
#6 = COORDINATED_UNIVERSAL_TIME_OFFSET ( 1, 0, .AHEAD. ) ;
#7 = CIRCLE ( 'NONE', #201, 1.424999999999998712 ) ;
#8 = PLANE ( 'NONE',  #141 ) ;
#9 = DIRECTION ( 'NONE',  ( 0.0000000000000000000, 1.000000000000000000, 0.0000000000000000000 ) ) ;
#10 = FACE_OUTER_BOUND ( 'NONE', #189, .T. ) ;
#11 = VERTEX_POINT ( 'NONE', #127 ) ;
#12 = VERTEX_POINT ( 'NONE', #337 ) ;
#13 = DIRECTION ( 'NONE',  ( 4.275831445896958607E-31, 1.000000000000000000, 1.224646799147353207E-16 ) ) ;
#14 = CONICAL_SURFACE ( 'NONE', #211, 1.124999999999998890, 0.7853981633974569387 ) ;
#15 = ORIENTED_EDGE ( 'NONE', *, *, #252, .T. ) ;
#16 = EDGE_CURVE ( 'NONE', #12, #114, #7, .T. ) ;
#17 = AXIS2_PLACEMENT_3D ( 'NONE', #20, #96, #228 ) ;
#18 = CC_DESIGN_PERSON_AND_ORGANIZATION_ASSIGNMENT ( #129, #237, ( #149 ) ) ;
#19 = EDGE_LOOP ( 'NONE', ( #270, #65 ) ) ;
#20 = CARTESIAN_POINT ( 'NONE',  ( 4.189777606611760026E-14, -1.469576158976823947E-15, 12.00000000000000000 ) ) ;
#21 = CIRCLE ( 'NONE', #262, 1.424999999999994937 ) ;
#22 = APPLICATION_CONTEXT ( 'configuration controlled 3d designs of mechanical parts and assemblies' ) ;
#23 = AXIS2_PLACEMENT_3D ( 'NONE', #2, #216, #79 ) ;
#24 = CARTESIAN_POINT ( 'NONE',  ( 0.0000000000000000000, 0.0000000000000000000, 0.0000000000000000000 ) ) ;
#25 = APPROVAL ( #249, 'UNSPECIFIED' ) ;
#26 = DIRECTION ( 'NONE',  ( 0.0000000000000000000, 1.000000000000000000, 0.0000000000000000000 ) ) ;
#27 = PERSON_AND_ORGANIZATION ( #284, #202 ) ;
#28 = DIRECTION ( 'NONE',  ( -3.491481338843133355E-15, 1.224646799147353207E-16, -1.000000000000000000 ) ) ;
#29 = AXIS2_PLACEMENT_3D ( 'NONE', #135, #236, #215 ) ;
#30 = LINE ( 'NONE', #217, #91 ) ;
#31 = DATE_AND_TIME ( #325, #49 ) ;
#32 = ORIENTED_EDGE ( 'NONE', *, *, #84, .F. ) ;
#33 = VECTOR ( 'NONE', #93, 1000.000000000000000 ) ;
#34 = CARTESIAN_POINT ( 'NONE',  ( 3.164010603855671471E-15, 1.424999999999993383, 0.8562263821142789277 ) ) ;
#35 = ORIENTED_EDGE ( 'NONE', *, *, #252, .F. ) ;
#36 = LINE ( 'NONE', #47, #336 ) ;
#37 = PERSON_AND_ORGANIZATION_ROLE ( 'creator' ) ;
#38 = DIRECTION ( 'NONE',  ( 0.0000000000000000000, 1.000000000000000000, 0.0000000000000000000 ) ) ;
#39 = VERTEX_POINT ( 'NONE', #4 ) ;
#40 = VERTEX_POINT ( 'NONE', #167 ) ;
#41 = CIRCLE ( 'NONE', #112, 1.424999999999993383 ) ;
#42 = ORIENTED_EDGE ( 'NONE', *, *, #44, .T. ) ;
#43 = DIRECTION ( 'NONE',  ( 1.000000000000000000, 0.0000000000000000000, 0.0000000000000000000 ) ) ;
#44 = EDGE_CURVE ( 'NONE', #308, #39, #21, .T. ) ;
#45 = ORIENTED_EDGE ( 'NONE', *, *, #288, .T. ) ;
#46 = APPROVAL_DATE_TIME ( #152, #108 ) ;
#47 = CARTESIAN_POINT ( 'NONE',  ( 1.745121688784964965E-16, -1.424999999999994049, -1.745121688784976798E-16 ) ) ;
#48 = SHAPE_DEFINITION_REPRESENTATION ( #132, #162 ) ;
#49 = LOCAL_TIME ( 9, 22, 25.00000000000000000, #289 ) ;
#50 = PRODUCT_RELATED_PRODUCT_CATEGORY ( 'detail', '', ( #191 ) ) ;
#51 = DATE_AND_TIME ( #233, #117 ) ;
#52 = EDGE_LOOP ( 'NONE', ( #103, #144 ) ) ;
#53 = VERTEX_POINT ( 'NONE', #34 ) ;
#54 = DIRECTION ( 'NONE',  ( -4.275831445896958607E-31, -1.000000000000000000, -1.224646799147353207E-16 ) ) ;
#55 = EDGE_CURVE ( 'NONE', #286, #53, #89, .T. ) ;
#56 = CIRCLE ( 'NONE', #219, 1.124999999999998890 ) ;
#57 = CARTESIAN_POINT ( 'NONE',  ( 4.189777606611760026E-14, 1.068578845146567524E-32, 12.00000000000000000 ) ) ;
#58 = ORIENTED_EDGE ( 'NONE', *, *, #196, .F. ) ;
#59 = VECTOR ( 'NONE', #60, 1000.000000000000114 ) ;
#60 = DIRECTION ( 'NONE',  ( 1.903218546456021928E-15, 0.8571673007021098911, 0.5150380749100583744 ) ) ;
#61 = CONICAL_SURFACE ( 'NONE', #168, 1.124999999999998890, 0.7853981633974569387 ) ;
#62 = EDGE_LOOP ( 'NONE', ( #246, #181, #285, #102 ) ) ;
#63 = CARTESIAN_POINT ( 'NONE',  ( 1.606081415867841091E-13, 1.124999999999993117, 46.00000000000000000 ) ) ;
#64 = LINE ( 'NONE', #210, #134 ) ;
#65 = ORIENTED_EDGE ( 'NONE', *, *, #240, .F. ) ;
#66 = LINE ( 'NONE', #63, #238 ) ;
#67 = CC_DESIGN_PERSON_AND_ORGANIZATION_ASSIGNMENT ( #321, #94, ( #323 ) ) ;
#68 = PERSON_AND_ORGANIZATION ( #284, #202 ) ;
#69 = ORIENTED_EDGE ( 'NONE', *, *, #288, .F. ) ;
#70 = FACE_OUTER_BOUND ( 'NONE', #72, .T. ) ;
#71 = AXIS2_PLACEMENT_3D ( 'NONE', #146, #332, #254 ) ;
#72 = EDGE_LOOP ( 'NONE', ( #294, #304, #176, #173 ) ) ;
#73 = DIRECTION ( 'NONE',  ( -3.491481338843133355E-15, 1.224646799147353207E-16, -1.000000000000000000 ) ) ;
#74 = CYLINDRICAL_SURFACE ( 'NONE', #71, 1.424999999999996714 ) ;
#75 = CARTESIAN_POINT ( 'NONE',  ( 1.606081415867841091E-13, -5.633375276077824704E-15, 46.00000000000000000 ) ) ;
#76 = CALENDAR_DATE ( 2021, 3, 9 ) ;
#77 = ADVANCED_FACE ( 'NONE', ( #143 ), #188, .T. ) ;
#78 = VECTOR ( 'NONE', #272, 1000.000000000000000 ) ;
#79 = DIRECTION ( 'NONE',  ( 0.0000000000000000000, 1.000000000000000000, 0.0000000000000000000 ) ) ;
#80 = DIRECTION ( 'NONE',  ( -2.382254525458694593E-15, -0.7071067811865535679, -0.7071067811865415775 ) ) ;
#81 = DATE_AND_TIME ( #313, #107 ) ;
#82 = PLANE ( 'NONE',  #126 ) ;
#83 = AXIS2_PLACEMENT_3D ( 'NONE', #161, #28, #199 ) ;
#84 = EDGE_CURVE ( 'NONE', #39, #53, #182, .T. ) ;
#85 = SECURITY_CLASSIFICATION_LEVEL ( 'unclassified' ) ;
#86 = ORIENTED_EDGE ( 'NONE', *, *, #263, .F. ) ;
#87 =( NAMED_UNIT ( * ) PLANE_ANGLE_UNIT ( ) SI_UNIT ( $, .RADIAN. ) );
#88 = CC_DESIGN_DATE_AND_TIME_ASSIGNMENT ( #81, #159, ( #149 ) ) ;
#89 = LINE ( 'NONE', #200, #59 ) ;
#90 = CARTESIAN_POINT ( 'NONE',  ( 2.261814941942586174E-14, -1.424999999999996270, 12.00000000000000000 ) ) ;
#91 = VECTOR ( 'NONE', #320, 1000.000000000000000 ) ;
#92 = CARTESIAN_POINT ( 'NONE',  ( 0.0000000000000000000, 0.0000000000000000000, 0.0000000000000000000 ) ) ;
#93 = DIRECTION ( 'NONE',  ( -3.491481338843133355E-15, 1.224646799147353207E-16, -1.000000000000000000 ) ) ;
#94 = PERSON_AND_ORGANIZATION_ROLE ( 'design_supplier' ) ;
#95 = APPROVAL_PERSON_ORGANIZATION ( #164, #98, #258 ) ;
#96 = DIRECTION ( 'NONE',  ( -3.491481338843133355E-15, 1.224646799147353207E-16, -1.000000000000000000 ) ) ;
#97 = ORIENTED_EDGE ( 'NONE', *, *, #263, .T. ) ;
#98 = APPROVAL ( #241, 'UNSPECIFIED' ) ;
#99 = CARTESIAN_POINT ( 'NONE',  ( 1.606081415867841091E-13, -5.633375276077824704E-15, 46.00000000000000000 ) ) ;
#100 = CARTESIAN_POINT ( 'NONE',  ( 1.606081415867841091E-13, 1.124999999999993117, 46.00000000000000000 ) ) ;
#101 = EDGE_LOOP ( 'NONE', ( #69, #42, #306, #35 ) ) ;
#102 = ORIENTED_EDGE ( 'NONE', *, *, #231, .F. ) ;
#103 = ORIENTED_EDGE ( 'NONE', *, *, #225, .F. ) ;
#104 = PLANE ( 'NONE',  #29 ) ;
#105 = ORIENTED_EDGE ( 'NONE', *, *, #145, .T. ) ;
#106 = CARTESIAN_POINT ( 'NONE',  ( 2.989498434977173175E-15, -1.424999999999993383, 0.8562263821142784836 ) ) ;
#107 = LOCAL_TIME ( 9, 22, 25.00000000000000000, #6 ) ;
#108 = APPROVAL ( #299, 'UNSPECIFIED' ) ;
#109 = CARTESIAN_POINT ( 'NONE',  ( 1.009037487945027485E-13, -1.425000000000004485, 45.70000000000000284 ) ) ;
#110 = CARTESIAN_POINT ( 'NONE',  ( 4.189777606611760026E-14, -1.469576158976823947E-15, 12.00000000000000000 ) ) ;
#111 = COORDINATED_UNIVERSAL_TIME_OFFSET ( 1, 0, .AHEAD. ) ;
#112 = AXIS2_PLACEMENT_3D ( 'NONE', #230, #73, #187 ) ;
#113 = CARTESIAN_POINT ( 'NONE',  ( 1.607459143516881893E-13, -1.125000000000004441, 46.00000000000000000 ) ) ;
#114 = VERTEX_POINT ( 'NONE', #109 ) ;
#115 = ORIENTED_EDGE ( 'NONE', *, *, #248, .F. ) ;
#116 = ADVANCED_FACE ( 'NONE', ( #213 ), #74, .T. ) ;
#117 = LOCAL_TIME ( 9, 22, 25.00000000000000000, #180 ) ;
#118 = CARTESIAN_POINT ( 'NONE',  ( 0.0000000000000000000, 0.0000000000000000000, 0.0000000000000000000 ) ) ;
#119 = CARTESIAN_POINT ( 'NONE',  ( 2.989498434977173964E-15, -1.048574898201769999E-16, 0.8562263821142787057 ) ) ;
#120 = EDGE_CURVE ( 'NONE', #286, #130, #30, .T. ) ;
#121 = AXIS2_PLACEMENT_3D ( 'NONE', #245, #292, #276 ) ;
#122 = CC_DESIGN_SECURITY_CLASSIFICATION ( #278, ( #323 ) ) ;
#123 = DIRECTION ( 'NONE',  ( 5.406119142139634319E-31, 1.000000000000000000, 1.521687259628785164E-16 ) ) ;
#124 = PERSON_AND_ORGANIZATION_ROLE ( 'classification_officer' ) ;
#125 = CC_DESIGN_PERSON_AND_ORGANIZATION_ASSIGNMENT ( #68, #158, ( #191 ) ) ;
#126 = AXIS2_PLACEMENT_3D ( 'NONE', #57, #3, #136 ) ;
#127 = CARTESIAN_POINT ( 'NONE',  ( 1.009037487945028621E-13, -1.424999999999996270, 12.00000000000000000 ) ) ;
#128 = FACE_OUTER_BOUND ( 'NONE', #19, .T. ) ;
#129 = PERSON_AND_ORGANIZATION ( #284, #202 ) ;
#130 = VERTEX_POINT ( 'NONE', #106 ) ;
#131 = FACE_OUTER_BOUND ( 'NONE', #52, .T. ) ;
#132 = PRODUCT_DEFINITION_SHAPE ( 'NONE', 'NONE',  #149 ) ;
#133 = DIRECTION ( 'NONE',  ( -3.491481338843133355E-15, 1.224646799147353207E-16, -1.000000000000000000 ) ) ;
#134 = VECTOR ( 'NONE', #179, 1000.000000000000000 ) ;
#135 = CARTESIAN_POINT ( 'NONE',  ( 1.606081415867841091E-13, 8.436148777472855989E-33, 46.00000000000000000 ) ) ;
#136 = DIRECTION ( 'NONE',  ( -4.275831445896958607E-31, -1.000000000000000000, -1.224646799147353207E-16 ) ) ;
#137 = CYLINDRICAL_SURFACE ( 'NONE', #121, 1.424999999999996714 ) ;
#138 = ADVANCED_FACE ( 'NONE', ( #261 ), #137, .T. ) ;
#139 = APPROVAL_DATE_TIME ( #31, #25 ) ;
#140 = CLOSED_SHELL ( 'NONE', ( #275, #116, #329, #138, #264, #234 ) ) ;
#141 = AXIS2_PLACEMENT_3D ( 'NONE', #314, #193, #54 ) ;
#142 = PERSON_AND_ORGANIZATION ( #284, #202 ) ;
#143 = FACE_OUTER_BOUND ( 'NONE', #315, .T. ) ;
#144 = ORIENTED_EDGE ( 'NONE', *, *, #44, .F. ) ;
#145 = EDGE_CURVE ( 'NONE', #40, #11, #250, .T. ) ;
#146 = CARTESIAN_POINT ( 'NONE',  ( 0.0000000000000000000, 0.0000000000000000000, 0.0000000000000000000 ) ) ;
#147 = ORIENTED_EDGE ( 'NONE', *, *, #145, .F. ) ;
#148 = AXIS2_PLACEMENT_3D ( 'NONE', #309, #133, #26 ) ;
#149 = PRODUCT_DEFINITION ( 'UNKNOWN', '', #323, #209 ) ;
#150 = APPROVAL_PERSON_ORGANIZATION ( #27, #25, #170 ) ;
#151 = ADVANCED_FACE ( 'NONE', ( #131 ), #8, .T. ) ;
#152 = DATE_AND_TIME ( #279, #257 ) ;
#153 = DIRECTION ( 'NONE',  ( -5.406119142139634319E-31, -1.000000000000000000, -1.521687259628785164E-16 ) ) ;
#154 = AXIS2_PLACEMENT_3D ( 'NONE', #24, #208, #333 ) ;
#155 = CARTESIAN_POINT ( 'NONE',  ( 1.606081415867841091E-13, -5.633375276077824704E-15, 46.00000000000000000 ) ) ;
#156 = APPROVAL_DATE_TIME ( #281, #98 ) ;
#157 = DIRECTION ( 'NONE',  ( 0.0000000000000000000, 1.000000000000000000, 0.0000000000000000000 ) ) ;
#158 = PERSON_AND_ORGANIZATION_ROLE ( 'design_owner' ) ;
#159 = DATE_TIME_ROLE ( 'creation_date' ) ;
#160 = MANIFOLD_SOLID_BREP ( 'Corps-Déplacer/Copier1[2]', #290 ) ;
#161 = CARTESIAN_POINT ( 'NONE',  ( 1.606081415867841091E-13, -5.633375276077824704E-15, 46.00000000000000000 ) ) ;
#162 = ADVANCED_BREP_SHAPE_REPRESENTATION ( '42522', ( #269, #160, #242 ), #253 ) ;
#163 = CIRCLE ( 'NONE', #302, 1.424999999999993383 ) ;
#164 = PERSON_AND_ORGANIZATION ( #284, #202 ) ;
#165 = ORIENTED_EDGE ( 'NONE', *, *, #260, .T. ) ;
#166 = DIRECTION ( 'NONE',  ( -3.491481338843133355E-15, 1.224646799147353207E-16, -1.000000000000000000 ) ) ;
#167 = CARTESIAN_POINT ( 'NONE',  ( 4.189777606611760026E-14, 1.424999999999993383, 12.00000000000000000 ) ) ;
#168 = AXIS2_PLACEMENT_3D ( 'NONE', #155, #317, #204 ) ;
#169 = FACE_OUTER_BOUND ( 'NONE', #190, .T. ) ;
#170 = APPROVAL_ROLE ( '' ) ;
#171 = FACE_OUTER_BOUND ( 'NONE', #255, .T. ) ;
#172 = CYLINDRICAL_SURFACE ( 'NONE', #154, 1.424999999999994049 ) ;
#173 = ORIENTED_EDGE ( 'NONE', *, *, #194, .F. ) ;
#174 =( NAMED_UNIT ( * ) SI_UNIT ( $, .STERADIAN. ) SOLID_ANGLE_UNIT ( ) );
#175 = CARTESIAN_POINT ( 'NONE',  ( 0.0000000000000000000, 0.0000000000000000000, 0.0000000000000000000 ) ) ;
#176 = ORIENTED_EDGE ( 'NONE', *, *, #16, .F. ) ;
#177 = CARTESIAN_POINT ( 'NONE',  ( 4.189777606611760026E-14, -1.469576158976823947E-15, 12.00000000000000000 ) ) ;
#178 = EDGE_CURVE ( 'NONE', #198, #212, #287, .T. ) ;
#179 = DIRECTION ( 'NONE',  ( -3.491481338843133355E-15, 1.224646799147353207E-16, -1.000000000000000000 ) ) ;
#180 = COORDINATED_UNIVERSAL_TIME_OFFSET ( 1, 0, .AHEAD. ) ;
#181 = ORIENTED_EDGE ( 'NONE', *, *, #240, .T. ) ;
#182 = LINE ( 'NONE', #334, #78 ) ;
#183 = APPLICATION_CONTEXT ( 'configuration controlled 3d designs of mechanical parts and assemblies' ) ;
#184 = CC_DESIGN_APPROVAL ( #25, ( #323 ) ) ;
#185 = APPROVAL_ROLE ( '' ) ;
#186 = ORIENTED_EDGE ( 'NONE', *, *, #260, .F. ) ;
#187 = DIRECTION ( 'NONE',  ( 5.406119142139634319E-31, 1.000000000000000000, 1.521687259628785164E-16 ) ) ;
#188 = CONICAL_SURFACE ( 'NONE', #224, 1.424999999999993383, 1.029744258676649871 ) ;
#189 = EDGE_LOOP ( 'NONE', ( #105, #165 ) ) ;
#190 = EDGE_LOOP ( 'NONE', ( #244, #218, #15 ) ) ;
#191 = PRODUCT ( '42522', '42522', '', ( #203 ) ) ;
#192 = ORIENTED_EDGE ( 'NONE', *, *, #248, .T. ) ;
#193 = DIRECTION ( 'NONE',  ( 3.491481338843133355E-15, -1.224646799147353207E-16, 1.000000000000000000 ) ) ;
#194 = EDGE_CURVE ( 'NONE', #198, #12, #66, .T. ) ;
#195 = AXIS2_PLACEMENT_3D ( 'NONE', #322, #207, #295 ) ;
#196 = EDGE_CURVE ( 'NONE', #53, #130, #41, .T. ) ;
#197 = ORIENTED_EDGE ( 'NONE', *, *, #16, .T. ) ;
#198 = VERTEX_POINT ( 'NONE', #100 ) ;
#199 = DIRECTION ( 'NONE',  ( 0.0000000000000000000, 1.000000000000000000, 0.0000000000000000000 ) ) ;
#200 = CARTESIAN_POINT ( 'NONE',  ( 3.164010603855671471E-15, 1.424999999999993383, 0.8562263821142789277 ) ) ;
#201 = AXIS2_PLACEMENT_3D ( 'NONE', #214, #283, #157 ) ;
#202 = ORGANIZATION ( 'UNSPECIFIED', 'UNSPECIFIED', '' ) ;
#203 = MECHANICAL_CONTEXT ( 'NONE', #183, 'mechanical' ) ;
#204 = DIRECTION ( 'NONE',  ( 0.0000000000000000000, 1.000000000000000000, 0.0000000000000000000 ) ) ;
#205 = EDGE_LOOP ( 'NONE', ( #197, #192, #147, #86 ) ) ;
#206 = ORIENTED_EDGE ( 'NONE', *, *, #231, .T. ) ;
#207 = DIRECTION ( 'NONE',  ( 3.491481338843133355E-15, -1.224646799147353207E-16, 1.000000000000000000 ) ) ;
#208 = DIRECTION ( 'NONE',  ( -3.491481338843133355E-15, 1.224646799147353207E-16, -1.000000000000000000 ) ) ;
#209 = DESIGN_CONTEXT ( 'detailed design', #22, 'design' ) ;
#210 = CARTESIAN_POINT ( 'NONE',  ( 6.093059810403152308E-31, 1.424999999999996714, 1.745121688784974579E-16 ) ) ;
#211 = AXIS2_PLACEMENT_3D ( 'NONE', #99, #300, #301 ) ;
#212 = VERTEX_POINT ( 'NONE', #280 ) ;
#213 = FACE_OUTER_BOUND ( 'NONE', #205, .T. ) ;
#214 = CARTESIAN_POINT ( 'NONE',  ( 1.595606971851312133E-13, -5.596635872103404633E-15, 45.70000000000000284 ) ) ;
#215 = DIRECTION ( 'NONE',  ( 4.275831445896958607E-31, 1.000000000000000000, 1.224646799147353207E-16 ) ) ;
#216 = DIRECTION ( 'NONE',  ( -3.491481338843133355E-15, 1.224646799147353207E-16, -1.000000000000000000 ) ) ;
#217 = CARTESIAN_POINT ( 'NONE',  ( 2.989498434977173175E-15, -1.424999999999993383, 0.8562263821142784836 ) ) ;
#218 = ORIENTED_EDGE ( 'NONE', *, *, #120, .T. ) ;
#219 = AXIS2_PLACEMENT_3D ( 'NONE', #75, #5, #9 ) ;
#220 = CIRCLE ( 'NONE', #265, 1.424999999999994937 ) ;
#221 =( LENGTH_UNIT ( ) NAMED_UNIT ( * ) SI_UNIT ( .MILLI., .METRE. ) );
#222 = DIRECTION ( 'NONE',  ( -3.491481338843133355E-15, 1.224646799147353207E-16, -1.000000000000000000 ) ) ;
#223 = ORIENTED_EDGE ( 'NONE', *, *, #55, .T. ) ;
#224 = AXIS2_PLACEMENT_3D ( 'NONE', #247, #298, #153 ) ;
#225 = EDGE_CURVE ( 'NONE', #39, #308, #220, .T. ) ;
#226 = APPLICATION_PROTOCOL_DEFINITION ( 'international standard', 'config_control_design', 1994, #183 ) ;
#227 = PERSON_AND_ORGANIZATION ( #284, #202 ) ;
#228 = DIRECTION ( 'NONE',  ( 0.0000000000000000000, 1.000000000000000000, 0.0000000000000000000 ) ) ;
#229 = PERSON_AND_ORGANIZATION ( #284, #202 ) ;
#230 = CARTESIAN_POINT ( 'NONE',  ( 2.989498434977173964E-15, -1.048574898201769999E-16, 0.8562263821142787057 ) ) ;
#231 = EDGE_CURVE ( 'NONE', #114, #12, #311, .T. ) ;
#232 = FACE_OUTER_BOUND ( 'NONE', #62, .T. ) ;
#233 = CALENDAR_DATE ( 2021, 3, 9 ) ;
#234 = ADVANCED_FACE ( 'NONE', ( #128 ), #104, .F. ) ;
#235 = LINE ( 'NONE', #1, #33 ) ;
#236 = DIRECTION ( 'NONE',  ( -3.491481338843133355E-15, 1.224646799147353207E-16, -1.000000000000000000 ) ) ;
#237 = PERSON_AND_ORGANIZATION_ROLE ( 'creator' ) ;
#238 = VECTOR ( 'NONE', #307, 1000.000000000000114 ) ;
#239 = ORIENTED_EDGE ( 'NONE', *, *, #225, .T. ) ;
#240 = EDGE_CURVE ( 'NONE', #212, #198, #56, .T. ) ;
#241 = APPROVAL_STATUS ( 'not_yet_approved' ) ;
#242 = AXIS2_PLACEMENT_3D ( 'NONE', #92, #267, #43 ) ;
#243 = ORIENTED_EDGE ( 'NONE', *, *, #120, .F. ) ;
#244 = ORIENTED_EDGE ( 'NONE', *, *, #55, .F. ) ;
#245 = CARTESIAN_POINT ( 'NONE',  ( 0.0000000000000000000, 0.0000000000000000000, 0.0000000000000000000 ) ) ;
#246 = ORIENTED_EDGE ( 'NONE', *, *, #330, .F. ) ;
#247 = CARTESIAN_POINT ( 'NONE',  ( 2.989498434977173964E-15, -1.048574898201769999E-16, 0.8562263821142787057 ) ) ;
#248 = EDGE_CURVE ( 'NONE', #114, #11, #235, .T. ) ;
#249 = APPROVAL_STATUS ( 'not_yet_approved' ) ;
#250 = CIRCLE ( 'NONE', #23, 1.424999999999994937 ) ;
#251 = DIRECTION ( 'NONE',  ( -3.491481338843133355E-15, 1.224646799147353207E-16, -1.000000000000000000 ) ) ;
#252 = EDGE_CURVE ( 'NONE', #130, #53, #163, .T. ) ;
#253 =( GEOMETRIC_REPRESENTATION_CONTEXT ( 3 ) GLOBAL_UNCERTAINTY_ASSIGNED_CONTEXT ( ( #331 ) ) GLOBAL_UNIT_ASSIGNED_CONTEXT ( ( #221, #87, #174 ) ) REPRESENTATION_CONTEXT ( 'NONE', 'WORKASPACE' ) );
#254 = DIRECTION ( 'NONE',  ( 4.275831445896958607E-31, 1.000000000000000000, 1.224646799147353454E-16 ) ) ;
#255 = EDGE_LOOP ( 'NONE', ( #239, #45, #58, #32 ) ) ;
#256 = AXIS2_PLACEMENT_3D ( 'NONE', #175, #271, #13 ) ;
#257 = LOCAL_TIME ( 9, 22, 25.00000000000000000, #274 ) ;
#258 = APPROVAL_ROLE ( '' ) ;
#259 = APPLICATION_PROTOCOL_DEFINITION ( 'international standard', 'config_control_design', 1994, #22 ) ;
#260 = EDGE_CURVE ( 'NONE', #11, #40, #277, .T. ) ;
#261 = FACE_OUTER_BOUND ( 'NONE', #316, .T. ) ;
#262 = AXIS2_PLACEMENT_3D ( 'NONE', #110, #166, #38 ) ;
#263 = EDGE_CURVE ( 'NONE', #12, #40, #64, .T. ) ;
#264 = ADVANCED_FACE ( 'NONE', ( #232 ), #14, .T. ) ;
#265 = AXIS2_PLACEMENT_3D ( 'NONE', #177, #251, #326 ) ;
#266 = CYLINDRICAL_SURFACE ( 'NONE', #256, 1.424999999999994049 ) ;
#267 = DIRECTION ( 'NONE',  ( 0.0000000000000000000, 0.0000000000000000000, 1.000000000000000000 ) ) ;
#268 = CC_DESIGN_DATE_AND_TIME_ASSIGNMENT ( #51, #305, ( #278 ) ) ;
#269 = MANIFOLD_SOLID_BREP ( 'Corps-Déplacer/Copier1[1]', #140 ) ;
#270 = ORIENTED_EDGE ( 'NONE', *, *, #178, .F. ) ;
#271 = DIRECTION ( 'NONE',  ( -3.491481338843133355E-15, 1.224646799147353207E-16, -1.000000000000000000 ) ) ;
#272 = DIRECTION ( 'NONE',  ( -3.491481338843133355E-15, 1.224646799147353207E-16, -1.000000000000000000 ) ) ;
#273 = ORIENTED_EDGE ( 'NONE', *, *, #196, .T. ) ;
#274 = COORDINATED_UNIVERSAL_TIME_OFFSET ( 1, 0, .AHEAD. ) ;
#275 = ADVANCED_FACE ( 'NONE', ( #70 ), #61, .T. ) ;
#276 = DIRECTION ( 'NONE',  ( 4.275831445896958607E-31, 1.000000000000000000, 1.224646799147353454E-16 ) ) ;
#277 = CIRCLE ( 'NONE', #17, 1.424999999999994937 ) ;
#278 = SECURITY_CLASSIFICATION ( '', '', #85 ) ;
#279 = CALENDAR_DATE ( 2021, 3, 9 ) ;
#280 = CARTESIAN_POINT ( 'NONE',  ( 1.602405618528489352E-13, -1.125000000000004441, 46.00000000000000000 ) ) ;
#281 = DATE_AND_TIME ( #76, #282 ) ;
#282 = LOCAL_TIME ( 9, 22, 25.00000000000000000, #111 ) ;
#283 = DIRECTION ( 'NONE',  ( -3.491481338843133355E-15, 1.224646799147353207E-16, -1.000000000000000000 ) ) ;
#284 = PERSON ( 'UNSPECIFIED', 'UNSPECIFIED', 'UNSPECIFIED', ('UNSPECIFIED'), ('UNSPECIFIED'), ('UNSPECIFIED') ) ;
#285 = ORIENTED_EDGE ( 'NONE', *, *, #194, .T. ) ;
#286 = VERTEX_POINT ( 'NONE', #118 ) ;
#287 = CIRCLE ( 'NONE', #83, 1.124999999999998890 ) ;
#288 = EDGE_CURVE ( 'NONE', #308, #130, #36, .T. ) ;
#289 = COORDINATED_UNIVERSAL_TIME_OFFSET ( 1, 0, .AHEAD. ) ;
#290 = CLOSED_SHELL ( 'NONE', ( #310, #77, #293, #318, #151 ) ) ;
#291 = CONICAL_SURFACE ( 'NONE', #195, 1.424999999999993383, 1.029744258676649871 ) ;
#292 = DIRECTION ( 'NONE',  ( -3.491481338843133355E-15, 1.224646799147353207E-16, -1.000000000000000000 ) ) ;
#293 = ADVANCED_FACE ( 'NONE', ( #169 ), #291, .T. ) ;
#294 = ORIENTED_EDGE ( 'NONE', *, *, #178, .T. ) ;
#295 = DIRECTION ( 'NONE',  ( -5.406119142139634319E-31, -1.000000000000000000, -1.521687259628785164E-16 ) ) ;
#296 = VECTOR ( 'NONE', #80, 1000.000000000000000 ) ;
#297 = APPROVAL_PERSON_ORGANIZATION ( #227, #108, #185 ) ;
#298 = DIRECTION ( 'NONE',  ( 3.491481338843133355E-15, -1.224646799147353207E-16, 1.000000000000000000 ) ) ;
#299 = APPROVAL_STATUS ( 'not_yet_approved' ) ;
#300 = DIRECTION ( 'NONE',  ( -3.491481338843133355E-15, 1.224646799147353207E-16, -1.000000000000000000 ) ) ;
#301 = DIRECTION ( 'NONE',  ( 0.0000000000000000000, 1.000000000000000000, 0.0000000000000000000 ) ) ;
#302 = AXIS2_PLACEMENT_3D ( 'NONE', #119, #327, #123 ) ;
#303 = CC_DESIGN_APPROVAL ( #108, ( #278 ) ) ;
#304 = ORIENTED_EDGE ( 'NONE', *, *, #330, .T. ) ;
#305 = DATE_TIME_ROLE ( 'classification_date' ) ;
#306 = ORIENTED_EDGE ( 'NONE', *, *, #84, .T. ) ;
#307 = DIRECTION ( 'NONE',  ( -2.468850131082243650E-15, 0.7071067811865536790, -0.7071067811865413555 ) ) ;
#308 = VERTEX_POINT ( 'NONE', #90 ) ;
#309 = CARTESIAN_POINT ( 'NONE',  ( 1.595606971851312133E-13, -5.596635872103404633E-15, 45.70000000000000284 ) ) ;
#310 = ADVANCED_FACE ( 'NONE', ( #171 ), #266, .T. ) ;
#311 = CIRCLE ( 'NONE', #148, 1.424999999999998712 ) ;
#312 = CC_DESIGN_PERSON_AND_ORGANIZATION_ASSIGNMENT ( #142, #37, ( #323 ) ) ;
#313 = CALENDAR_DATE ( 2021, 3, 9 ) ;
#314 = CARTESIAN_POINT ( 'NONE',  ( 4.189777606611760026E-14, 1.068578845146567524E-32, 12.00000000000000000 ) ) ;
#315 = EDGE_LOOP ( 'NONE', ( #243, #223, #273 ) ) ;
#316 = EDGE_LOOP ( 'NONE', ( #115, #206, #97, #186 ) ) ;
#317 = DIRECTION ( 'NONE',  ( -3.491481338843133355E-15, 1.224646799147353207E-16, -1.000000000000000000 ) ) ;
#318 = ADVANCED_FACE ( 'NONE', ( #324 ), #172, .T. ) ;
#319 = LINE ( 'NONE', #113, #296 ) ;
#320 = DIRECTION ( 'NONE',  ( 1.798245827342159528E-15, -0.8571673007021100021, 0.5150380749100580413 ) ) ;
#321 = PERSON_AND_ORGANIZATION ( #284, #202 ) ;
#322 = CARTESIAN_POINT ( 'NONE',  ( 2.989498434977173964E-15, -1.048574898201769999E-16, 0.8562263821142787057 ) ) ;
#323 = PRODUCT_DEFINITION_FORMATION_WITH_SPECIFIED_SOURCE ( 'ANY', '', #191, .NOT_KNOWN. ) ;
#324 = FACE_OUTER_BOUND ( 'NONE', #101, .T. ) ;
#325 = CALENDAR_DATE ( 2021, 3, 9 ) ;
#326 = DIRECTION ( 'NONE',  ( 0.0000000000000000000, 1.000000000000000000, 0.0000000000000000000 ) ) ;
#327 = DIRECTION ( 'NONE',  ( -3.491481338843133355E-15, 1.224646799147353207E-16, -1.000000000000000000 ) ) ;
#328 = CC_DESIGN_APPROVAL ( #98, ( #149 ) ) ;
#329 = ADVANCED_FACE ( 'NONE', ( #10 ), #82, .F. ) ;
#330 = EDGE_CURVE ( 'NONE', #212, #114, #319, .T. ) ;
#331 = UNCERTAINTY_MEASURE_WITH_UNIT (LENGTH_MEASURE( 1.000000000000000082E-05 ), #221, 'distance_accuracy_value', 'NONE');
#332 = DIRECTION ( 'NONE',  ( -3.491481338843133355E-15, 1.224646799147353207E-16, -1.000000000000000000 ) ) ;
#333 = DIRECTION ( 'NONE',  ( 4.275831445896958607E-31, 1.000000000000000000, 1.224646799147353207E-16 ) ) ;
#334 = CARTESIAN_POINT ( 'NONE',  ( 6.093059810403140047E-31, 1.424999999999994049, 1.745121688784970882E-16 ) ) ;
#335 = CC_DESIGN_PERSON_AND_ORGANIZATION_ASSIGNMENT ( #229, #124, ( #278 ) ) ;
#336 = VECTOR ( 'NONE', #222, 1000.000000000000000 ) ;
#337 = CARTESIAN_POINT ( 'NONE',  ( 1.595606971851312133E-13, 1.424999999999993161, 45.70000000000000284 ) ) ;
ENDSEC;
END-ISO-10303-21;
