ISO-10303-21;
HEADER;
FILE_DESCRIPTION (( 'STEP AP203' ),
    '1' );
FILE_NAME ('42363.step',
    '2021-11-15T14:31:29',
    ( '' ),
    ( '' ),
    'SwSTEP 2.0',
    'SolidWorks 2019',
    '' );
FILE_SCHEMA (( 'CONFIG_CONTROL_DESIGN' ));
ENDSEC;

DATA;
#1 = EDGE_CURVE ( 'NONE', #198, #198, #136, .T. ) ;
#2 = FACE_OUTER_BOUND ( 'NONE', #141, .T. ) ;
#3 = AXIS2_PLACEMENT_3D ( 'NONE', #142, #32, #92 ) ;
#4 = APPROVAL_DATE_TIME ( #69, #114 ) ;
#5 = UNCERTAINTY_MEASURE_WITH_UNIT (LENGTH_MEASURE( 1.000000000000000082E-05 ), #54, 'distance_accuracy_value', 'NONE');
#6 = DIRECTION ( 'NONE',  ( 0.0000000000000000000, 1.000000000000000000, 0.0000000000000000000 ) ) ;
#7 = CC_DESIGN_DATE_AND_TIME_ASSIGNMENT ( #128, #21, ( #135 ) ) ;
#8 = DIRECTION ( 'NONE',  ( 4.275831445896958607E-31, 1.000000000000000000, 1.224646799147353207E-16 ) ) ;
#9 = PERSON_AND_ORGANIZATION ( #47, #147 ) ;
#10 = APPROVAL_PERSON_ORGANIZATION ( #12, #195, #41 ) ;
#11 = CALENDAR_DATE ( 2021, 15, 11 ) ;
#12 = PERSON_AND_ORGANIZATION ( #47, #147 ) ;
#13 = FACE_OUTER_BOUND ( 'NONE', #49, .T. ) ;
#14 =( NAMED_UNIT ( * ) SI_UNIT ( $, .STERADIAN. ) SOLID_ANGLE_UNIT ( ) );
#15 = CIRCLE ( 'NONE', #134, 7.500000000000000888 ) ;
#16 = FACE_OUTER_BOUND ( 'NONE', #106, .T. ) ;
#17 = ADVANCED_FACE ( 'NONE', ( #161, #87 ), #89, .T. ) ;
#18 = DIRECTION ( 'NONE',  ( -4.275831445896958607E-31, -1.000000000000000000, -1.224646799147353207E-16 ) ) ;
#19 = APPROVAL_PERSON_ORGANIZATION ( #68, #114, #164 ) ;
#20 = EDGE_LOOP ( 'NONE', ( #137 ) ) ;
#21 = DATE_TIME_ROLE ( 'creation_date' ) ;
#22 = COORDINATED_UNIVERSAL_TIME_OFFSET ( 1, 0, .AHEAD. ) ;
#23 = PERSON_AND_ORGANIZATION ( #47, #147 ) ;
#24 = PRODUCT_DEFINITION_SHAPE ( 'NONE', 'NONE',  #135 ) ;
#25 = APPROVAL_STATUS ( 'not_yet_approved' ) ;
#26 = APPROVAL_PERSON_ORGANIZATION ( #48, #62, #154 ) ;
#27 = CARTESIAN_POINT ( 'NONE',  ( 0.0000000000000000000, 0.0000000000000000000, 0.0000000000000000000 ) ) ;
#28 = CARTESIAN_POINT ( 'NONE',  ( 1.117274028429802674E-13, 5.999039130647421673E-32, 32.00000000000000000 ) ) ;
#29 =( GEOMETRIC_REPRESENTATION_CONTEXT ( 3 ) GLOBAL_UNCERTAINTY_ASSIGNED_CONTEXT ( ( #5 ) ) GLOBAL_UNIT_ASSIGNED_CONTEXT ( ( #54, #149, #14 ) ) REPRESENTATION_CONTEXT ( 'NONE', 'WORKASPACE' ) );
#30 = DIRECTION ( 'NONE',  ( 4.275831445896959482E-31, 1.000000000000000000, 1.224646799147353454E-16 ) ) ;
#31 = ADVANCED_FACE ( 'NONE', ( #2, #86 ), #46, .T. ) ;
#32 = DIRECTION ( 'NONE',  ( -3.491481338843133355E-15, 1.224646799147353207E-16, -1.000000000000000000 ) ) ;
#33 = PRODUCT_DEFINITION_FORMATION_WITH_SPECIFIED_SOURCE ( 'ANY', '', #79, .NOT_KNOWN. ) ;
#34 = CALENDAR_DATE ( 2021, 15, 11 ) ;
#35 = CARTESIAN_POINT ( 'NONE',  ( 1.117274028429802674E-13, -3.918869757271530263E-15, 32.00000000000000000 ) ) ;
#36 = CALENDAR_DATE ( 2021, 15, 11 ) ;
#37 = PERSON_AND_ORGANIZATION_ROLE ( 'creator' ) ;
#38 = ORIENTED_EDGE ( 'NONE', *, *, #81, .T. ) ;
#39 = CARTESIAN_POINT ( 'NONE',  ( 0.0000000000000000000, 0.0000000000000000000, 0.0000000000000000000 ) ) ;
#40 = CC_DESIGN_PERSON_AND_ORGANIZATION_ASSIGNMENT ( #170, #37, ( #135 ) ) ;
#41 = APPROVAL_ROLE ( '' ) ;
#42 = CLOSED_SHELL ( 'NONE', ( #60, #17, #140, #109 ) ) ;
#43 = DATE_AND_TIME ( #36, #118 ) ;
#44 = AXIS2_PLACEMENT_3D ( 'NONE', #28, #151, #190 ) ;
#45 = APPLICATION_CONTEXT ( 'configuration controlled 3d designs of mechanical parts and assemblies' ) ;
#46 = CYLINDRICAL_SURFACE ( 'NONE', #59, 7.999999999999991118 ) ;
#47 = PERSON ( 'UNSPECIFIED', 'UNSPECIFIED', 'UNSPECIFIED', ('UNSPECIFIED'), ('UNSPECIFIED'), ('UNSPECIFIED') ) ;
#48 = PERSON_AND_ORGANIZATION ( #47, #147 ) ;
#49 = EDGE_LOOP ( 'NONE', ( #101 ) ) ;
#50 = PLANE ( 'NONE',  #160 ) ;
#51 = CARTESIAN_POINT ( 'NONE',  ( -1.496544924531591446E-30, 5.249172983450887604E-32, -4.286275019953153706E-16 ) ) ;
#52 = CLOSED_SHELL ( 'NONE', ( #197, #31, #63 ) ) ;
#53 = CARTESIAN_POINT ( 'NONE',  ( 3.194705425041467083E-13, -1.120551821219828183E-14, 91.50000000000000000 ) ) ;
#54 =( LENGTH_UNIT ( ) NAMED_UNIT ( * ) SI_UNIT ( .MILLI., .METRE. ) );
#55 = CC_DESIGN_APPROVAL ( #114, ( #135 ) ) ;
#56 = CARTESIAN_POINT ( 'NONE',  ( 1.117274028429802674E-13, 5.999039130647421673E-32, 32.00000000000000000 ) ) ;
#57 = DIRECTION ( 'NONE',  ( -3.491481338843133355E-15, 1.224646799147353207E-16, -1.000000000000000000 ) ) ;
#58 = AXIS2_PLACEMENT_3D ( 'NONE', #39, #139, #202 ) ;
#59 = AXIS2_PLACEMENT_3D ( 'NONE', #27, #57, #88 ) ;
#60 = ADVANCED_FACE ( 'NONE', ( #105 ), #177, .F. ) ;
#61 = CALENDAR_DATE ( 2021, 15, 11 ) ;
#62 = APPROVAL ( #162, 'UNSPECIFIED' ) ;
#63 = ADVANCED_FACE ( 'NONE', ( #13 ), #71, .T. ) ;
#64 = FACE_BOUND ( 'NONE', #163, .T. ) ;
#65 = APPLICATION_CONTEXT ( 'configuration controlled 3d designs of mechanical parts and assemblies' ) ;
#66 = ORIENTED_EDGE ( 'NONE', *, *, #155, .T. ) ;
#67 = CIRCLE ( 'NONE', #123, 8.000000000000000000 ) ;
#68 = PERSON_AND_ORGANIZATION ( #47, #147 ) ;
#69 = DATE_AND_TIME ( #11, #110 ) ;
#70 = MECHANICAL_CONTEXT ( 'NONE', #45, 'mechanical' ) ;
#71 = PLANE ( 'NONE',  #182 ) ;
#72 = CARTESIAN_POINT ( 'NONE',  ( 4.275753076543793505E-31, 7.999999999999989342, 1.224624353272506412E-16 ) ) ;
#73 = CARTESIAN_POINT ( 'NONE',  ( 0.0000000000000000000, 0.0000000000000000000, 0.0000000000000000000 ) ) ;
#74 = PRODUCT_RELATED_PRODUCT_CATEGORY ( 'detail', '', ( #79 ) ) ;
#75 = CARTESIAN_POINT ( 'NONE',  ( -2.993089849063182893E-30, 1.049834596690177521E-31, -8.572550039906307412E-16 ) ) ;
#76 = DIRECTION ( 'NONE',  ( 0.0000000000000000000, 1.000000000000000000, 0.0000000000000000000 ) ) ;
#77 = FACE_OUTER_BOUND ( 'NONE', #113, .T. ) ;
#78 = PERSON_AND_ORGANIZATION_ROLE ( 'design_supplier' ) ;
#79 = PRODUCT ( '42363', '42363', '', ( #70 ) ) ;
#80 = LOCAL_TIME ( 15, 31, 29.00000000000000000, #173 ) ;
#81 = EDGE_CURVE ( 'NONE', #185, #185, #85, .T. ) ;
#82 = EDGE_CURVE ( 'NONE', #189, #189, #15, .T. ) ;
#83 = CIRCLE ( 'NONE', #132, 7.999999999999992895 ) ;
#84 = CARTESIAN_POINT ( 'NONE',  ( 3.194705425041467083E-13, 7.999999999999989342, 91.50000000000000000 ) ) ;
#85 = CIRCLE ( 'NONE', #116, 7.999999999999989342 ) ;
#86 = FACE_OUTER_BOUND ( 'NONE', #178, .T. ) ;
#87 = FACE_OUTER_BOUND ( 'NONE', #146, .T. ) ;
#88 = DIRECTION ( 'NONE',  ( 4.275831445896957731E-31, 1.000000000000000000, 1.224646799147353454E-16 ) ) ;
#89 = CYLINDRICAL_SURFACE ( 'NONE', #100, 7.999999999999996447 ) ;
#90 = AXIS2_PLACEMENT_3D ( 'NONE', #133, #131, #194 ) ;
#91 = ORIENTED_EDGE ( 'NONE', *, *, #1, .T. ) ;
#92 = DIRECTION ( 'NONE',  ( 0.0000000000000000000, 1.000000000000000000, 0.0000000000000000000 ) ) ;
#93 = DIRECTION ( 'NONE',  ( -3.491481338843133355E-15, 1.224646799147353207E-16, -1.000000000000000000 ) ) ;
#94 = PERSON_AND_ORGANIZATION ( #47, #147 ) ;
#95 = CARTESIAN_POINT ( 'NONE',  ( 3.212162831735682182E-13, -1.126675055215564941E-14, 92.00000000000000000 ) ) ;
#96 = SECURITY_CLASSIFICATION ( '', '', #98 ) ;
#97 = APPROVAL_DATE_TIME ( #187, #195 ) ;
#98 = SECURITY_CLASSIFICATION_LEVEL ( 'unclassified' ) ;
#99 = CC_DESIGN_SECURITY_CLASSIFICATION ( #96, ( #33 ) ) ;
#100 = AXIS2_PLACEMENT_3D ( 'NONE', #73, #129, #171 ) ;
#101 = ORIENTED_EDGE ( 'NONE', *, *, #155, .F. ) ;
#102 = PERSON_AND_ORGANIZATION_ROLE ( 'design_owner' ) ;
#103 = EDGE_LOOP ( 'NONE', ( #108 ) ) ;
#104 = LOCAL_TIME ( 15, 31, 29.00000000000000000, #22 ) ;
#105 = FACE_OUTER_BOUND ( 'NONE', #203, .T. ) ;
#106 = EDGE_LOOP ( 'NONE', ( #179 ) ) ;
#107 = CC_DESIGN_APPROVAL ( #62, ( #33 ) ) ;
#108 = ORIENTED_EDGE ( 'NONE', *, *, #1, .F. ) ;
#109 = ADVANCED_FACE ( 'NONE', ( #186 ), #50, .F. ) ;
#110 = LOCAL_TIME ( 15, 31, 29.00000000000000000, #144 ) ;
#111 = DIRECTION ( 'NONE',  ( -3.491481338843133355E-15, 1.224646799147353207E-16, -1.000000000000000000 ) ) ;
#112 = DATE_AND_TIME ( #34, #80 ) ;
#113 = EDGE_LOOP ( 'NONE', ( #38 ) ) ;
#114 = APPROVAL ( #120, 'UNSPECIFIED' ) ;
#115 = DIRECTION ( 'NONE',  ( 3.491481338843133355E-15, -1.224646799147353207E-16, 1.000000000000000000 ) ) ;
#116 = AXIS2_PLACEMENT_3D ( 'NONE', #75, #143, #30 ) ;
#117 = CARTESIAN_POINT ( 'NONE',  ( 1.117274028429802674E-13, 7.999999999999989342, 32.00000000000000000 ) ) ;
#118 = LOCAL_TIME ( 15, 31, 29.00000000000000000, #126 ) ;
#119 = CC_DESIGN_DATE_AND_TIME_ASSIGNMENT ( #43, #192, ( #96 ) ) ;
#120 = APPROVAL_STATUS ( 'not_yet_approved' ) ;
#121 = EDGE_CURVE ( 'NONE', #169, #169, #67, .T. ) ;
#122 = SHAPE_DEFINITION_REPRESENTATION ( #24, #193 ) ;
#123 = AXIS2_PLACEMENT_3D ( 'NONE', #53, #111, #76 ) ;
#124 = PERSON_AND_ORGANIZATION_ROLE ( 'classification_officer' ) ;
#125 = LOCAL_TIME ( 15, 31, 29.00000000000000000, #201 ) ;
#126 = COORDINATED_UNIVERSAL_TIME_OFFSET ( 1, 0, .AHEAD. ) ;
#127 = CC_DESIGN_PERSON_AND_ORGANIZATION_ASSIGNMENT ( #174, #102, ( #79 ) ) ;
#128 = DATE_AND_TIME ( #61, #125 ) ;
#129 = DIRECTION ( 'NONE',  ( -3.491481338843133355E-15, 1.224646799147353207E-16, -1.000000000000000000 ) ) ;
#130 = DESIGN_CONTEXT ( 'detailed design', #65, 'design' ) ;
#131 = DIRECTION ( 'NONE',  ( -3.491481338843133355E-15, 1.224646799147353207E-16, -1.000000000000000000 ) ) ;
#132 = AXIS2_PLACEMENT_3D ( 'NONE', #35, #93, #165 ) ;
#133 = CARTESIAN_POINT ( 'NONE',  ( 3.212162831735682182E-13, -1.126675055215564941E-14, 92.00000000000000000 ) ) ;
#134 = AXIS2_PLACEMENT_3D ( 'NONE', #95, #150, #6 ) ;
#135 = PRODUCT_DEFINITION ( 'UNKNOWN', '', #33, #130 ) ;
#136 = CIRCLE ( 'NONE', #3, 7.999999999999992895 ) ;
#137 = ORIENTED_EDGE ( 'NONE', *, *, #82, .F. ) ;
#138 = DIRECTION ( 'NONE',  ( 3.491481338843133355E-15, -1.224646799147353207E-16, 1.000000000000000000 ) ) ;
#139 = DIRECTION ( 'NONE',  ( 0.0000000000000000000, 0.0000000000000000000, 1.000000000000000000 ) ) ;
#140 = ADVANCED_FACE ( 'NONE', ( #16, #64 ), #180, .T. ) ;
#141 = EDGE_LOOP ( 'NONE', ( #172 ) ) ;
#142 = CARTESIAN_POINT ( 'NONE',  ( 1.117274028429802674E-13, -3.918869757271530263E-15, 32.00000000000000000 ) ) ;
#143 = DIRECTION ( 'NONE',  ( -3.491481338843133355E-15, 1.224646799147353207E-16, -1.000000000000000000 ) ) ;
#144 = COORDINATED_UNIVERSAL_TIME_OFFSET ( 1, 0, .AHEAD. ) ;
#145 = CC_DESIGN_APPROVAL ( #195, ( #96 ) ) ;
#146 = EDGE_LOOP ( 'NONE', ( #152 ) ) ;
#147 = ORGANIZATION ( 'UNSPECIFIED', 'UNSPECIFIED', '' ) ;
#148 = VERTEX_POINT ( 'NONE', #153 ) ;
#149 =( NAMED_UNIT ( * ) PLANE_ANGLE_UNIT ( ) SI_UNIT ( $, .RADIAN. ) );
#150 = DIRECTION ( 'NONE',  ( -3.491481338843133355E-15, 1.224646799147353207E-16, -1.000000000000000000 ) ) ;
#151 = DIRECTION ( 'NONE',  ( 3.491481338843133355E-15, -1.224646799147353207E-16, 1.000000000000000000 ) ) ;
#152 = ORIENTED_EDGE ( 'NONE', *, *, #121, .T. ) ;
#153 = CARTESIAN_POINT ( 'NONE',  ( 1.117274028429802674E-13, 7.999999999999989342, 32.00000000000000000 ) ) ;
#154 = APPROVAL_ROLE ( '' ) ;
#155 = EDGE_CURVE ( 'NONE', #148, #148, #83, .T. ) ;
#156 = CALENDAR_DATE ( 2021, 15, 11 ) ;
#157 = ORIENTED_EDGE ( 'NONE', *, *, #82, .T. ) ;
#158 = AXIS2_PLACEMENT_3D ( 'NONE', #51, #115, #18 ) ;
#159 = CC_DESIGN_PERSON_AND_ORGANIZATION_ASSIGNMENT ( #9, #78, ( #33 ) ) ;
#160 = AXIS2_PLACEMENT_3D ( 'NONE', #184, #199, #8 ) ;
#161 = FACE_OUTER_BOUND ( 'NONE', #103, .T. ) ;
#162 = APPROVAL_STATUS ( 'not_yet_approved' ) ;
#163 = EDGE_LOOP ( 'NONE', ( #157 ) ) ;
#164 = APPROVAL_ROLE ( '' ) ;
#165 = DIRECTION ( 'NONE',  ( 0.0000000000000000000, 1.000000000000000000, 0.0000000000000000000 ) ) ;
#166 = PERSON_AND_ORGANIZATION_ROLE ( 'creator' ) ;
#167 = MANIFOLD_SOLID_BREP ( 'Corps-Déplacer/Copier1[1]', #42 ) ;
#168 = CC_DESIGN_PERSON_AND_ORGANIZATION_ASSIGNMENT ( #23, #124, ( #96 ) ) ;
#169 = VERTEX_POINT ( 'NONE', #84 ) ;
#170 = PERSON_AND_ORGANIZATION ( #47, #147 ) ;
#171 = DIRECTION ( 'NONE',  ( 4.275831445896958607E-31, 1.000000000000000000, 1.224646799147353207E-16 ) ) ;
#172 = ORIENTED_EDGE ( 'NONE', *, *, #81, .F. ) ;
#173 = COORDINATED_UNIVERSAL_TIME_OFFSET ( 1, 0, .AHEAD. ) ;
#174 = PERSON_AND_ORGANIZATION ( #47, #147 ) ;
#175 = APPLICATION_PROTOCOL_DEFINITION ( 'international standard', 'config_control_design', 1994, #45 ) ;
#176 = MANIFOLD_SOLID_BREP ( 'Corps-Déplacer/Copier1[2]', #52 ) ;
#177 = PLANE ( 'NONE',  #44 ) ;
#178 = EDGE_LOOP ( 'NONE', ( #66 ) ) ;
#179 = ORIENTED_EDGE ( 'NONE', *, *, #121, .F. ) ;
#180 = CONICAL_SURFACE ( 'NONE', #90, 7.500000000000000888, 0.7853981633974473908 ) ;
#181 = APPROVAL_DATE_TIME ( #112, #62 ) ;
#182 = AXIS2_PLACEMENT_3D ( 'NONE', #56, #138, #191 ) ;
#183 = CC_DESIGN_PERSON_AND_ORGANIZATION_ASSIGNMENT ( #94, #166, ( #33 ) ) ;
#184 = CARTESIAN_POINT ( 'NONE',  ( 3.212162831735682182E-13, 5.624099184981950155E-32, 92.00000000000000000 ) ) ;
#185 = VERTEX_POINT ( 'NONE', #72 ) ;
#186 = FACE_OUTER_BOUND ( 'NONE', #20, .T. ) ;
#187 = DATE_AND_TIME ( #156, #104 ) ;
#188 = APPLICATION_PROTOCOL_DEFINITION ( 'international standard', 'config_control_design', 1994, #65 ) ;
#189 = VERTEX_POINT ( 'NONE', #200 ) ;
#190 = DIRECTION ( 'NONE',  ( -4.275831445896958607E-31, -1.000000000000000000, -1.224646799147353207E-16 ) ) ;
#191 = DIRECTION ( 'NONE',  ( -4.275831445896958607E-31, -1.000000000000000000, -1.224646799147353207E-16 ) ) ;
#192 = DATE_TIME_ROLE ( 'classification_date' ) ;
#193 = ADVANCED_BREP_SHAPE_REPRESENTATION ( '42363', ( #167, #176, #58 ), #29 ) ;
#194 = DIRECTION ( 'NONE',  ( 0.0000000000000000000, 1.000000000000000000, 0.0000000000000000000 ) ) ;
#195 = APPROVAL ( #25, 'UNSPECIFIED' ) ;
#196 = PLANE ( 'NONE',  #158 ) ;
#197 = ADVANCED_FACE ( 'NONE', ( #77 ), #196, .F. ) ;
#198 = VERTEX_POINT ( 'NONE', #117 ) ;
#199 = DIRECTION ( 'NONE',  ( -3.491481338843133355E-15, 1.224646799147353207E-16, -1.000000000000000000 ) ) ;
#200 = CARTESIAN_POINT ( 'NONE',  ( 3.212162831735682182E-13, 7.499999999999989342, 92.00000000000000000 ) ) ;
#201 = COORDINATED_UNIVERSAL_TIME_OFFSET ( 1, 0, .AHEAD. ) ;
#202 = DIRECTION ( 'NONE',  ( 1.000000000000000000, 0.0000000000000000000, 0.0000000000000000000 ) ) ;
#203 = EDGE_LOOP ( 'NONE', ( #91 ) ) ;
ENDSEC;
END-ISO-10303-21;
