ISO-10303-21;
HEADER;
FILE_DESCRIPTION (( 'STEP AP203' ),
    '1' );
FILE_NAME ('42362.step',
    '2021-11-15T14:31:29',
    ( '' ),
    ( '' ),
    'SwSTEP 2.0',
    'SolidWorks 2019',
    '' );
FILE_SCHEMA (( 'CONFIG_CONTROL_DESIGN' ));
ENDSEC;

DATA;
#1 = ORIENTED_EDGE ( 'NONE', *, *, #74, .T. ) ;
#2 = ADVANCED_FACE ( 'NONE', ( #41, #163 ), #77, .T. ) ;
#3 = FACE_OUTER_BOUND ( 'NONE', #26, .T. ) ;
#4 = CARTESIAN_POINT ( 'NONE',  ( 2.897929511239800811E-13, 4.874219293651024088E-32, 83.00000000000000000 ) ) ;
#5 = CC_DESIGN_SECURITY_CLASSIFICATION ( #155, ( #49 ) ) ;
#6 = UNCERTAINTY_MEASURE_WITH_UNIT (LENGTH_MEASURE( 1.000000000000000082E-05 ), #160, 'distance_accuracy_value', 'NONE');
#7 = DIRECTION ( 'NONE',  ( -3.491481338843133355E-15, 1.224646799147353207E-16, -1.000000000000000000 ) ) ;
#8 = CARTESIAN_POINT ( 'NONE',  ( 8.551737199941398906E-31, 6.999999999999991118, 2.449314880994017066E-16 ) ) ;
#9 = EDGE_CURVE ( 'NONE', #144, #144, #158, .T. ) ;
#10 = DATE_TIME_ROLE ( 'creation_date' ) ;
#11 = DIRECTION ( 'NONE',  ( -4.275831445896958607E-31, -1.000000000000000000, -1.224646799147353207E-16 ) ) ;
#12 = CC_DESIGN_DATE_AND_TIME_ASSIGNMENT ( #51, #168, ( #155 ) ) ;
#13 = PERSON_AND_ORGANIZATION ( #31, #63 ) ;
#14 = LOCAL_TIME ( 15, 31, 29.00000000000000000, #85 ) ;
#15 = FACE_OUTER_BOUND ( 'NONE', #65, .T. ) ;
#16 = EDGE_LOOP ( 'NONE', ( #132 ) ) ;
#17 = SECURITY_CLASSIFICATION_LEVEL ( 'unclassified' ) ;
#18 = PERSON_AND_ORGANIZATION ( #31, #63 ) ;
#19 = CALENDAR_DATE ( 2021, 15, 11 ) ;
#20 = CARTESIAN_POINT ( 'NONE',  ( 9.077851480992146724E-14, 5.249159239316492869E-32, 26.00000000000000000 ) ) ;
#21 = FACE_OUTER_BOUND ( 'NONE', #16, .T. ) ;
#22 = FACE_OUTER_BOUND ( 'NONE', #146, .T. ) ;
#23 = VERTEX_POINT ( 'NONE', #8 ) ;
#24 = CLOSED_SHELL ( 'NONE', ( #93, #122, #2, #139 ) ) ;
#25 = AXIS2_PLACEMENT_3D ( 'NONE', #140, #169, #99 ) ;
#26 = EDGE_LOOP ( 'NONE', ( #76 ) ) ;
#27 = DIRECTION ( 'NONE',  ( 4.275831445896958607E-31, 1.000000000000000000, 1.224646799147353207E-16 ) ) ;
#28 = EDGE_CURVE ( 'NONE', #23, #23, #118, .T. ) ;
#29 = AXIS2_PLACEMENT_3D ( 'NONE', #114, #37, #101 ) ;
#30 = EDGE_LOOP ( 'NONE', ( #1 ) ) ;
#31 = PERSON ( 'UNSPECIFIED', 'UNSPECIFIED', 'UNSPECIFIED', ('UNSPECIFIED'), ('UNSPECIFIED'), ('UNSPECIFIED') ) ;
#32 = APPROVAL_STATUS ( 'not_yet_approved' ) ;
#33 = AXIS2_PLACEMENT_3D ( 'NONE', #38, #103, #27 ) ;
#34 = PERSON_AND_ORGANIZATION_ROLE ( 'design_owner' ) ;
#35 = AXIS2_PLACEMENT_3D ( 'NONE', #190, #175, #143 ) ;
#36 = DIRECTION ( 'NONE',  ( -3.491481338843133355E-15, 1.224646799147353207E-16, -1.000000000000000000 ) ) ;
#37 = DIRECTION ( 'NONE',  ( -3.491481338843133355E-15, 1.224646799147353207E-16, -1.000000000000000000 ) ) ;
#38 = CARTESIAN_POINT ( 'NONE',  ( -2.137908292133727631E-30, 7.498772849519687662E-32, -6.123212713037445277E-16 ) ) ;
#39 = CARTESIAN_POINT ( 'NONE',  ( 0.0000000000000000000, 0.0000000000000000000, 0.0000000000000000000 ) ) ;
#40 = APPROVAL ( #82, 'UNSPECIFIED' ) ;
#41 = FACE_OUTER_BOUND ( 'NONE', #174, .T. ) ;
#42 = DIRECTION ( 'NONE',  ( 0.0000000000000000000, 1.000000000000000000, 0.0000000000000000000 ) ) ;
#43 = AXIS2_PLACEMENT_3D ( 'NONE', #59, #105, #11 ) ;
#44 = DIRECTION ( 'NONE',  ( -4.275831445896958607E-31, -1.000000000000000000, -1.224646799147353207E-16 ) ) ;
#45 = APPROVAL_STATUS ( 'not_yet_approved' ) ;
#46 = CARTESIAN_POINT ( 'NONE',  ( 9.077851480992146724E-14, 6.999999999999991118, 26.00000000000000000 ) ) ;
#47 = VERTEX_POINT ( 'NONE', #46 ) ;
#48 = DATE_AND_TIME ( #165, #50 ) ;
#49 = PRODUCT_DEFINITION_FORMATION_WITH_SPECIFIED_SOURCE ( 'ANY', '', #116, .NOT_KNOWN. ) ;
#50 = LOCAL_TIME ( 15, 31, 29.00000000000000000, #191 ) ;
#51 = DATE_AND_TIME ( #138, #14 ) ;
#52 = ADVANCED_FACE ( 'NONE', ( #3 ), #100, .T. ) ;
#53 = APPROVAL_DATE_TIME ( #187, #40 ) ;
#54 = DATE_AND_TIME ( #137, #150 ) ;
#55 = APPROVAL_ROLE ( '' ) ;
#56 = ORIENTED_EDGE ( 'NONE', *, *, #152, .T. ) ;
#57 =( GEOMETRIC_REPRESENTATION_CONTEXT ( 3 ) GLOBAL_UNCERTAINTY_ASSIGNED_CONTEXT ( ( #6 ) ) GLOBAL_UNIT_ASSIGNED_CONTEXT ( ( #160, #78, #79 ) ) REPRESENTATION_CONTEXT ( 'NONE', 'WORKASPACE' ) );
#58 = CIRCLE ( 'NONE', #173, 6.999999999999994671 ) ;
#59 = CARTESIAN_POINT ( 'NONE',  ( 9.077851480992146724E-14, 5.249159239316492869E-32, 26.00000000000000000 ) ) ;
#60 = ORIENTED_EDGE ( 'NONE', *, *, #74, .F. ) ;
#61 = APPLICATION_PROTOCOL_DEFINITION ( 'international standard', 'config_control_design', 1994, #153 ) ;
#62 = CC_DESIGN_PERSON_AND_ORGANIZATION_ASSIGNMENT ( #96, #66, ( #161 ) ) ;
#63 = ORGANIZATION ( 'UNSPECIFIED', 'UNSPECIFIED', '' ) ;
#64 = DIRECTION ( 'NONE',  ( 0.0000000000000000000, 1.000000000000000000, 0.0000000000000000000 ) ) ;
#65 = EDGE_LOOP ( 'NONE', ( #72 ) ) ;
#66 = PERSON_AND_ORGANIZATION_ROLE ( 'creator' ) ;
#67 = APPROVAL_ROLE ( '' ) ;
#68 = APPROVAL_DATE_TIME ( #54, #196 ) ;
#69 = PERSON_AND_ORGANIZATION_ROLE ( 'classification_officer' ) ;
#70 = CLOSED_SHELL ( 'NONE', ( #117, #95, #52 ) ) ;
#71 = CC_DESIGN_APPROVAL ( #196, ( #49 ) ) ;
#72 = ORIENTED_EDGE ( 'NONE', *, *, #9, .T. ) ;
#73 = CARTESIAN_POINT ( 'NONE',  ( 2.880472104545584703E-13, -1.010333609296566392E-14, 82.50000000000000000 ) ) ;
#74 = EDGE_CURVE ( 'NONE', #88, #88, #179, .T. ) ;
#75 = CIRCLE ( 'NONE', #94, 6.999999999999994671 ) ;
#76 = ORIENTED_EDGE ( 'NONE', *, *, #152, .F. ) ;
#77 = CONICAL_SURFACE ( 'NONE', #178, 6.500000000000002665, 0.7853981633974473908 ) ;
#78 =( NAMED_UNIT ( * ) PLANE_ANGLE_UNIT ( ) SI_UNIT ( $, .RADIAN. ) );
#79 =( NAMED_UNIT ( * ) SI_UNIT ( $, .STERADIAN. ) SOLID_ANGLE_UNIT ( ) );
#80 = CC_DESIGN_PERSON_AND_ORGANIZATION_ASSIGNMENT ( #18, #69, ( #155 ) ) ;
#81 = APPROVAL_PERSON_ORGANIZATION ( #128, #90, #55 ) ;
#82 = APPROVAL_STATUS ( 'not_yet_approved' ) ;
#83 = CYLINDRICAL_SURFACE ( 'NONE', #25, 6.999999999999998224 ) ;
#84 = APPROVAL_ROLE ( '' ) ;
#85 = COORDINATED_UNIVERSAL_TIME_OFFSET ( 1, 0, .AHEAD. ) ;
#86 = DIRECTION ( 'NONE',  ( 4.275831445896958607E-31, 1.000000000000000000, 1.224646799147353207E-16 ) ) ;
#87 = AXIS2_PLACEMENT_3D ( 'NONE', #129, #7, #64 ) ;
#88 = VERTEX_POINT ( 'NONE', #106 ) ;
#89 = PRODUCT_DEFINITION_SHAPE ( 'NONE', 'NONE',  #161 ) ;
#90 = APPROVAL ( #45, 'UNSPECIFIED' ) ;
#91 = ORIENTED_EDGE ( 'NONE', *, *, #136, .T. ) ;
#92 = FACE_OUTER_BOUND ( 'NONE', #189, .T. ) ;
#93 = ADVANCED_FACE ( 'NONE', ( #157 ), #120, .F. ) ;
#94 = AXIS2_PLACEMENT_3D ( 'NONE', #141, #36, #176 ) ;
#95 = ADVANCED_FACE ( 'NONE', ( #92, #22 ), #108, .T. ) ;
#96 = PERSON_AND_ORGANIZATION ( #31, #63 ) ;
#97 = EDGE_LOOP ( 'NONE', ( #60 ) ) ;
#98 = CC_DESIGN_APPROVAL ( #40, ( #155 ) ) ;
#99 = DIRECTION ( 'NONE',  ( 4.275831445896958607E-31, 1.000000000000000000, 1.224646799147353454E-16 ) ) ;
#100 = PLANE ( 'NONE',  #134 ) ;
#101 = DIRECTION ( 'NONE',  ( 4.275831445896958607E-31, 1.000000000000000000, 1.224646799147353207E-16 ) ) ;
#102 = DIRECTION ( 'NONE',  ( 0.0000000000000000000, 1.000000000000000000, 0.0000000000000000000 ) ) ;
#103 = DIRECTION ( 'NONE',  ( -3.491481338843133355E-15, 1.224646799147353207E-16, -1.000000000000000000 ) ) ;
#104 = MECHANICAL_CONTEXT ( 'NONE', #153, 'mechanical' ) ;
#105 = DIRECTION ( 'NONE',  ( 3.491481338843133355E-15, -1.224646799147353207E-16, 1.000000000000000000 ) ) ;
#106 = CARTESIAN_POINT ( 'NONE',  ( 2.897929511239800811E-13, 6.499999999999992006, 83.00000000000000000 ) ) ;
#107 = APPROVAL_PERSON_ORGANIZATION ( #148, #196, #84 ) ;
#108 = CYLINDRICAL_SURFACE ( 'NONE', #29, 6.999999999999992895 ) ;
#109 = PERSON_AND_ORGANIZATION ( #31, #63 ) ;
#110 = SHAPE_DEFINITION_REPRESENTATION ( #89, #201 ) ;
#111 = COORDINATED_UNIVERSAL_TIME_OFFSET ( 1, 0, .AHEAD. ) ;
#112 = PERSON_AND_ORGANIZATION_ROLE ( 'creator' ) ;
#113 = CC_DESIGN_PERSON_AND_ORGANIZATION_ASSIGNMENT ( #171, #154, ( #49 ) ) ;
#114 = CARTESIAN_POINT ( 'NONE',  ( 0.0000000000000000000, 0.0000000000000000000, 0.0000000000000000000 ) ) ;
#115 = ORIENTED_EDGE ( 'NONE', *, *, #9, .F. ) ;
#116 = PRODUCT ( '42362', '42362', '', ( #104 ) ) ;
#117 = ADVANCED_FACE ( 'NONE', ( #21 ), #123, .F. ) ;
#118 = CIRCLE ( 'NONE', #33, 6.999999999999991118 ) ;
#119 = DIRECTION ( 'NONE',  ( 0.0000000000000000000, 0.0000000000000000000, 1.000000000000000000 ) ) ;
#120 = PLANE ( 'NONE',  #43 ) ;
#121 = CARTESIAN_POINT ( 'NONE',  ( 9.077851480992146724E-14, 6.999999999999991118, 26.00000000000000000 ) ) ;
#122 = ADVANCED_FACE ( 'NONE', ( #194, #15 ), #83, .T. ) ;
#123 = PLANE ( 'NONE',  #35 ) ;
#124 = EDGE_LOOP ( 'NONE', ( #183 ) ) ;
#125 = PERSON_AND_ORGANIZATION ( #31, #63 ) ;
#126 = APPLICATION_PROTOCOL_DEFINITION ( 'international standard', 'config_control_design', 1994, #135 ) ;
#127 = PLANE ( 'NONE',  #159 ) ;
#128 = PERSON_AND_ORGANIZATION ( #31, #63 ) ;
#129 = CARTESIAN_POINT ( 'NONE',  ( 2.897929511239800811E-13, -1.016456843292303150E-14, 83.00000000000000000 ) ) ;
#130 = EDGE_LOOP ( 'NONE', ( #91 ) ) ;
#131 = DESIGN_CONTEXT ( 'detailed design', #135, 'design' ) ;
#132 = ORIENTED_EDGE ( 'NONE', *, *, #28, .T. ) ;
#133 = DIRECTION ( 'NONE',  ( 0.0000000000000000000, 1.000000000000000000, 0.0000000000000000000 ) ) ;
#134 = AXIS2_PLACEMENT_3D ( 'NONE', #20, #197, #44 ) ;
#135 = APPLICATION_CONTEXT ( 'configuration controlled 3d designs of mechanical parts and assemblies' ) ;
#136 = EDGE_CURVE ( 'NONE', #184, #184, #75, .T. ) ;
#137 = CALENDAR_DATE ( 2021, 15, 11 ) ;
#138 = CALENDAR_DATE ( 2021, 15, 11 ) ;
#139 = ADVANCED_FACE ( 'NONE', ( #156 ), #127, .F. ) ;
#140 = CARTESIAN_POINT ( 'NONE',  ( 0.0000000000000000000, 0.0000000000000000000, 0.0000000000000000000 ) ) ;
#141 = CARTESIAN_POINT ( 'NONE',  ( 9.077851480992146724E-14, -3.184081677783118191E-15, 26.00000000000000000 ) ) ;
#142 = DIRECTION ( 'NONE',  ( -3.491481338843133355E-15, 1.224646799147353207E-16, -1.000000000000000000 ) ) ;
#143 = DIRECTION ( 'NONE',  ( -4.275831445896958607E-31, -1.000000000000000000, -1.224646799147353207E-16 ) ) ;
#144 = VERTEX_POINT ( 'NONE', #195 ) ;
#145 = CC_DESIGN_PERSON_AND_ORGANIZATION_ASSIGNMENT ( #125, #112, ( #49 ) ) ;
#146 = EDGE_LOOP ( 'NONE', ( #56 ) ) ;
#147 = CARTESIAN_POINT ( 'NONE',  ( 2.897929511239800811E-13, -1.016456843292303150E-14, 83.00000000000000000 ) ) ;
#148 = PERSON_AND_ORGANIZATION ( #31, #63 ) ;
#149 = APPROVAL_DATE_TIME ( #48, #90 ) ;
#150 = LOCAL_TIME ( 15, 31, 29.00000000000000000, #200 ) ;
#151 = COORDINATED_UNIVERSAL_TIME_OFFSET ( 1, 0, .AHEAD. ) ;
#152 = EDGE_CURVE ( 'NONE', #47, #47, #58, .T. ) ;
#153 = APPLICATION_CONTEXT ( 'configuration controlled 3d designs of mechanical parts and assemblies' ) ;
#154 = PERSON_AND_ORGANIZATION_ROLE ( 'design_supplier' ) ;
#155 = SECURITY_CLASSIFICATION ( '', '', #17 ) ;
#156 = FACE_OUTER_BOUND ( 'NONE', #97, .T. ) ;
#157 = FACE_OUTER_BOUND ( 'NONE', #130, .T. ) ;
#158 = CIRCLE ( 'NONE', #202, 7.000000000000001776 ) ;
#159 = AXIS2_PLACEMENT_3D ( 'NONE', #4, #172, #86 ) ;
#160 =( LENGTH_UNIT ( ) NAMED_UNIT ( * ) SI_UNIT ( .MILLI., .METRE. ) );
#161 = PRODUCT_DEFINITION ( 'UNKNOWN', '', #49, #131 ) ;
#162 = DIRECTION ( 'NONE',  ( -3.491481338843133355E-15, 1.224646799147353207E-16, -1.000000000000000000 ) ) ;
#163 = FACE_BOUND ( 'NONE', #30, .T. ) ;
#164 = MANIFOLD_SOLID_BREP ( 'Corps-Déplacer/Copier1[1]', #24 ) ;
#165 = CALENDAR_DATE ( 2021, 15, 11 ) ;
#166 = MANIFOLD_SOLID_BREP ( 'Corps-Déplacer/Copier1[2]', #70 ) ;
#167 = APPROVAL_PERSON_ORGANIZATION ( #13, #40, #67 ) ;
#168 = DATE_TIME_ROLE ( 'classification_date' ) ;
#169 = DIRECTION ( 'NONE',  ( -3.491481338843133355E-15, 1.224646799147353207E-16, -1.000000000000000000 ) ) ;
#170 = CC_DESIGN_DATE_AND_TIME_ASSIGNMENT ( #186, #10, ( #161 ) ) ;
#171 = PERSON_AND_ORGANIZATION ( #31, #63 ) ;
#172 = DIRECTION ( 'NONE',  ( -3.491481338843133355E-15, 1.224646799147353207E-16, -1.000000000000000000 ) ) ;
#173 = AXIS2_PLACEMENT_3D ( 'NONE', #188, #142, #102 ) ;
#174 = EDGE_LOOP ( 'NONE', ( #115 ) ) ;
#175 = DIRECTION ( 'NONE',  ( 3.491481338843133355E-15, -1.224646799147353207E-16, 1.000000000000000000 ) ) ;
#176 = DIRECTION ( 'NONE',  ( 0.0000000000000000000, 1.000000000000000000, 0.0000000000000000000 ) ) ;
#177 = PRODUCT_RELATED_PRODUCT_CATEGORY ( 'detail', '', ( #116 ) ) ;
#178 = AXIS2_PLACEMENT_3D ( 'NONE', #147, #162, #133 ) ;
#179 = CIRCLE ( 'NONE', #87, 6.500000000000002665 ) ;
#180 = DIRECTION ( 'NONE',  ( 1.000000000000000000, 0.0000000000000000000, 0.0000000000000000000 ) ) ;
#181 = DIRECTION ( 'NONE',  ( -3.491481338843133355E-15, 1.224646799147353207E-16, -1.000000000000000000 ) ) ;
#182 = LOCAL_TIME ( 15, 31, 29.00000000000000000, #111 ) ;
#183 = ORIENTED_EDGE ( 'NONE', *, *, #136, .F. ) ;
#184 = VERTEX_POINT ( 'NONE', #121 ) ;
#185 = AXIS2_PLACEMENT_3D ( 'NONE', #39, #119, #180 ) ;
#186 = DATE_AND_TIME ( #199, #193 ) ;
#187 = DATE_AND_TIME ( #19, #182 ) ;
#188 = CARTESIAN_POINT ( 'NONE',  ( 9.077851480992146724E-14, -3.184081677783118191E-15, 26.00000000000000000 ) ) ;
#189 = EDGE_LOOP ( 'NONE', ( #192 ) ) ;
#190 = CARTESIAN_POINT ( 'NONE',  ( -1.068954146066863815E-30, 3.749386424759843831E-32, -3.061606356518722638E-16 ) ) ;
#191 = COORDINATED_UNIVERSAL_TIME_OFFSET ( 1, 0, .AHEAD. ) ;
#192 = ORIENTED_EDGE ( 'NONE', *, *, #28, .F. ) ;
#193 = LOCAL_TIME ( 15, 31, 29.00000000000000000, #151 ) ;
#194 = FACE_OUTER_BOUND ( 'NONE', #124, .T. ) ;
#195 = CARTESIAN_POINT ( 'NONE',  ( 2.880472104545584703E-13, 6.999999999999991118, 82.50000000000000000 ) ) ;
#196 = APPROVAL ( #32, 'UNSPECIFIED' ) ;
#197 = DIRECTION ( 'NONE',  ( 3.491481338843133355E-15, -1.224646799147353207E-16, 1.000000000000000000 ) ) ;
#198 = CC_DESIGN_PERSON_AND_ORGANIZATION_ASSIGNMENT ( #109, #34, ( #116 ) ) ;
#199 = CALENDAR_DATE ( 2021, 15, 11 ) ;
#200 = COORDINATED_UNIVERSAL_TIME_OFFSET ( 1, 0, .AHEAD. ) ;
#201 = ADVANCED_BREP_SHAPE_REPRESENTATION ( '42362', ( #164, #166, #185 ), #57 ) ;
#202 = AXIS2_PLACEMENT_3D ( 'NONE', #73, #181, #42 ) ;
#203 = CC_DESIGN_APPROVAL ( #90, ( #161 ) ) ;
ENDSEC;
END-ISO-10303-21;
