ISO-10303-21;
HEADER;
FILE_DESCRIPTION (( 'STEP AP203' ),
    '1' );
FILE_NAME ('42361.step',
    '2021-11-15T14:31:28',
    ( '' ),
    ( '' ),
    'SwSTEP 2.0',
    'SolidWorks 2019',
    '' );
FILE_SCHEMA (( 'CONFIG_CONTROL_DESIGN' ));
ENDSEC;

DATA;
#1 = DIRECTION ( 'NONE',  ( 4.275831445896958607E-31, 1.000000000000000000, 1.224646799147353207E-16 ) ) ;
#2 =( LENGTH_UNIT ( ) NAMED_UNIT ( * ) SI_UNIT ( .MILLI., .METRE. ) );
#3 = EDGE_CURVE ( 'NONE', #122, #122, #80, .T. ) ;
#4 = PERSON ( 'UNSPECIFIED', 'UNSPECIFIED', 'UNSPECIFIED', ('UNSPECIFIED'), ('UNSPECIFIED'), ('UNSPECIFIED') ) ;
#5 = CARTESIAN_POINT ( 'NONE',  ( -2.137922747642660270E-30, 4.999999999999986677, -6.123254115260540545E-16 ) ) ;
#6 = PERSON_AND_ORGANIZATION_ROLE ( 'classification_officer' ) ;
#7 = SHAPE_DEFINITION_REPRESENTATION ( #99, #42 ) ;
#8 = ADVANCED_FACE ( 'NONE', ( #190 ), #165, .F. ) ;
#9 = AXIS2_PLACEMENT_3D ( 'NONE', #62, #29, #68 ) ;
#10 = CC_DESIGN_PERSON_AND_ORGANIZATION_ASSIGNMENT ( #156, #63, ( #132 ) ) ;
#11 = FACE_OUTER_BOUND ( 'NONE', #90, .T. ) ;
#12 = CALENDAR_DATE ( 2021, 15, 11 ) ;
#13 = ORIENTED_EDGE ( 'NONE', *, *, #131, .F. ) ;
#14 = CARTESIAN_POINT ( 'NONE',  ( 7.681258945454893382E-14, -2.694222958124176809E-15, 22.00000000000000000 ) ) ;
#15 = APPROVAL_ROLE ( '' ) ;
#16 = FACE_OUTER_BOUND ( 'NONE', #19, .T. ) ;
#17 = PERSON_AND_ORGANIZATION ( #4, #51 ) ;
#18 = FACE_OUTER_BOUND ( 'NONE', #47, .T. ) ;
#19 = EDGE_LOOP ( 'NONE', ( #123 ) ) ;
#20 = ADVANCED_FACE ( 'NONE', ( #95, #40 ), #192, .T. ) ;
#21 = DATE_AND_TIME ( #178, #103 ) ;
#22 = PRODUCT_RELATED_PRODUCT_CATEGORY ( 'detail', '', ( #132 ) ) ;
#23 = PERSON_AND_ORGANIZATION ( #4, #51 ) ;
#24 = APPLICATION_CONTEXT ( 'configuration controlled 3d designs of mechanical parts and assemblies' ) ;
#25 = DATE_TIME_ROLE ( 'classification_date' ) ;
#26 = AXIS2_PLACEMENT_3D ( 'NONE', #14, #28, #162 ) ;
#27 = CARTESIAN_POINT ( 'NONE',  ( -4.275838470591133793E-30, 1.499762246592894795E-31, -1.224648811099729204E-15 ) ) ;
#28 = DIRECTION ( 'NONE',  ( -3.491481338843133355E-15, 1.224646799147353207E-16, -1.000000000000000000 ) ) ;
#29 = DIRECTION ( 'NONE',  ( 3.491481338843133355E-15, -1.224646799147353207E-16, 1.000000000000000000 ) ) ;
#30 = CC_DESIGN_APPROVAL ( #136, ( #71 ) ) ;
#31 = CARTESIAN_POINT ( 'NONE',  ( 2.513866563967056016E-13, -8.817456953860941711E-15, 72.00000000000000000 ) ) ;
#32 = CARTESIAN_POINT ( 'NONE',  ( 0.0000000000000000000, 0.0000000000000000000, 0.0000000000000000000 ) ) ;
#33 = EDGE_LOOP ( 'NONE', ( #129 ) ) ;
#34 = CC_DESIGN_PERSON_AND_ORGANIZATION_ASSIGNMENT ( #158, #189, ( #71 ) ) ;
#35 = AXIS2_PLACEMENT_3D ( 'NONE', #108, #130, #185 ) ;
#36 = VERTEX_POINT ( 'NONE', #104 ) ;
#37 = LOCAL_TIME ( 15, 31, 28.00000000000000000, #151 ) ;
#38 = DIRECTION ( 'NONE',  ( 0.0000000000000000000, 0.0000000000000000000, 1.000000000000000000 ) ) ;
#39 = ORIENTED_EDGE ( 'NONE', *, *, #117, .F. ) ;
#40 = FACE_OUTER_BOUND ( 'NONE', #115, .T. ) ;
#41 = DATE_TIME_ROLE ( 'creation_date' ) ;
#42 = ADVANCED_BREP_SHAPE_REPRESENTATION ( '42361', ( #171, #98, #193 ), #116 ) ;
#43 = DIRECTION ( 'NONE',  ( 0.0000000000000000000, 1.000000000000000000, 0.0000000000000000000 ) ) ;
#44 = DATE_AND_TIME ( #12, #161 ) ;
#45 = DIRECTION ( 'NONE',  ( -3.491481338843133355E-15, 1.224646799147353207E-16, -1.000000000000000000 ) ) ;
#46 = PLANE ( 'NONE',  #56 ) ;
#47 = EDGE_LOOP ( 'NONE', ( #13 ) ) ;
#48 = CC_DESIGN_SECURITY_CLASSIFICATION ( #133, ( #169 ) ) ;
#49 = APPLICATION_PROTOCOL_DEFINITION ( 'international standard', 'config_control_design', 1994, #24 ) ;
#50 = APPROVAL_DATE_TIME ( #102, #184 ) ;
#51 = ORGANIZATION ( 'UNSPECIFIED', 'UNSPECIFIED', '' ) ;
#52 = COORDINATED_UNIVERSAL_TIME_OFFSET ( 1, 0, .AHEAD. ) ;
#53 = CC_DESIGN_DATE_AND_TIME_ASSIGNMENT ( #154, #25, ( #133 ) ) ;
#54 = VERTEX_POINT ( 'NONE', #166 ) ;
#55 = APPROVAL ( #75, 'UNSPECIFIED' ) ;
#56 = AXIS2_PLACEMENT_3D ( 'NONE', #125, #81, #202 ) ;
#57 = APPROVAL_PERSON_ORGANIZATION ( #137, #184, #135 ) ;
#58 = CARTESIAN_POINT ( 'NONE',  ( 0.0000000000000000000, 0.0000000000000000000, 0.0000000000000000000 ) ) ;
#59 = COORDINATED_UNIVERSAL_TIME_OFFSET ( 1, 0, .AHEAD. ) ;
#60 = AXIS2_PLACEMENT_3D ( 'NONE', #174, #45, #79 ) ;
#61 = LOCAL_TIME ( 15, 31, 28.00000000000000000, #52 ) ;
#62 = CARTESIAN_POINT ( 'NONE',  ( 7.681258945454893382E-14, 3.749399456654631977E-32, 22.00000000000000000 ) ) ;
#63 = PERSON_AND_ORGANIZATION_ROLE ( 'design_owner' ) ;
#64 = CARTESIAN_POINT ( 'NONE',  ( 0.0000000000000000000, 0.0000000000000000000, 0.0000000000000000000 ) ) ;
#65 = CYLINDRICAL_SURFACE ( 'NONE', #87, 4.999999999999988454 ) ;
#66 = MECHANICAL_CONTEXT ( 'NONE', #24, 'mechanical' ) ;
#67 = AXIS2_PLACEMENT_3D ( 'NONE', #111, #144, #175 ) ;
#68 = DIRECTION ( 'NONE',  ( -4.275831445896958607E-31, -1.000000000000000000, -1.224646799147353207E-16 ) ) ;
#69 = CLOSED_SHELL ( 'NONE', ( #8, #195, #139 ) ) ;
#70 = APPROVAL_PERSON_ORGANIZATION ( #140, #136, #106 ) ;
#71 = PRODUCT_DEFINITION ( 'UNKNOWN', '', #169, #134 ) ;
#72 = APPROVAL_STATUS ( 'not_yet_approved' ) ;
#73 = AXIS2_PLACEMENT_3D ( 'NONE', #64, #127, #1 ) ;
#74 = FACE_BOUND ( 'NONE', #33, .T. ) ;
#75 = APPROVAL_STATUS ( 'not_yet_approved' ) ;
#76 = ORIENTED_EDGE ( 'NONE', *, *, #131, .T. ) ;
#77 = EDGE_LOOP ( 'NONE', ( #82 ) ) ;
#78 = DIRECTION ( 'NONE',  ( -3.491481338843133355E-15, 1.224646799147353207E-16, -1.000000000000000000 ) ) ;
#79 = DIRECTION ( 'NONE',  ( 0.0000000000000000000, 1.000000000000000000, 0.0000000000000000000 ) ) ;
#80 = CIRCLE ( 'NONE', #149, 4.999999999999986677 ) ;
#81 = DIRECTION ( 'NONE',  ( -3.491481338843133355E-15, 1.224646799147353207E-16, -1.000000000000000000 ) ) ;
#82 = ORIENTED_EDGE ( 'NONE', *, *, #176, .T. ) ;
#83 = DIRECTION ( 'NONE',  ( 1.000000000000000000, 0.0000000000000000000, 0.0000000000000000000 ) ) ;
#84 = CC_DESIGN_PERSON_AND_ORGANIZATION_ASSIGNMENT ( #86, #6, ( #133 ) ) ;
#85 = ADVANCED_FACE ( 'NONE', ( #173 ), #46, .F. ) ;
#86 = PERSON_AND_ORGANIZATION ( #4, #51 ) ;
#87 = AXIS2_PLACEMENT_3D ( 'NONE', #32, #152, #182 ) ;
#88 = ORIENTED_EDGE ( 'NONE', *, *, #146, .T. ) ;
#89 = ADVANCED_FACE ( 'NONE', ( #11, #74 ), #191, .T. ) ;
#90 = EDGE_LOOP ( 'NONE', ( #92 ) ) ;
#91 = APPROVAL_DATE_TIME ( #141, #136 ) ;
#92 = ORIENTED_EDGE ( 'NONE', *, *, #146, .F. ) ;
#93 = DIRECTION ( 'NONE',  ( -3.491481338843133355E-15, 1.224646799147353207E-16, -1.000000000000000000 ) ) ;
#94 = DIRECTION ( 'NONE',  ( 4.275831445896959482E-31, 1.000000000000000000, 1.224646799147353454E-16 ) ) ;
#95 = FACE_OUTER_BOUND ( 'NONE', #199, .T. ) ;
#96 = COORDINATED_UNIVERSAL_TIME_OFFSET ( 1, 0, .AHEAD. ) ;
#97 = ORIENTED_EDGE ( 'NONE', *, *, #176, .F. ) ;
#98 = MANIFOLD_SOLID_BREP ( 'Corps-Déplacer/Copier1[2]', #69 ) ;
#99 = PRODUCT_DEFINITION_SHAPE ( 'NONE', 'NONE',  #71 ) ;
#100 = CALENDAR_DATE ( 2021, 15, 11 ) ;
#101 = APPLICATION_CONTEXT ( 'configuration controlled 3d designs of mechanical parts and assemblies' ) ;
#102 = DATE_AND_TIME ( #100, #61 ) ;
#103 = LOCAL_TIME ( 15, 31, 28.00000000000000000, #96 ) ;
#104 = CARTESIAN_POINT ( 'NONE',  ( 7.681258945454893382E-14, 4.999999999999986677, 22.00000000000000000 ) ) ;
#105 = PERSON_AND_ORGANIZATION_ROLE ( 'design_supplier' ) ;
#106 = APPROVAL_ROLE ( '' ) ;
#107 = AXIS2_PLACEMENT_3D ( 'NONE', #159, #188, #43 ) ;
#108 = CARTESIAN_POINT ( 'NONE',  ( -2.137919235295566897E-30, 7.498811232964473977E-32, -6.123244055498646018E-16 ) ) ;
#109 = CC_DESIGN_PERSON_AND_ORGANIZATION_ASSIGNMENT ( #23, #105, ( #169 ) ) ;
#110 = DIRECTION ( 'NONE',  ( 0.0000000000000000000, 1.000000000000000000, 0.0000000000000000000 ) ) ;
#111 = CARTESIAN_POINT ( 'NONE',  ( 7.681258945454893382E-14, 3.749399456654631977E-32, 22.00000000000000000 ) ) ;
#112 = AXIS2_PLACEMENT_3D ( 'NONE', #31, #93, #110 ) ;
#113 = EDGE_LOOP ( 'NONE', ( #39 ) ) ;
#114 = DIRECTION ( 'NONE',  ( 0.0000000000000000000, 1.000000000000000000, 0.0000000000000000000 ) ) ;
#115 = EDGE_LOOP ( 'NONE', ( #88 ) ) ;
#116 =( GEOMETRIC_REPRESENTATION_CONTEXT ( 3 ) GLOBAL_UNCERTAINTY_ASSIGNED_CONTEXT ( ( #180 ) ) GLOBAL_UNIT_ASSIGNED_CONTEXT ( ( #2, #179, #148 ) ) REPRESENTATION_CONTEXT ( 'NONE', 'WORKASPACE' ) );
#117 = EDGE_CURVE ( 'NONE', #120, #120, #118, .T. ) ;
#118 = CIRCLE ( 'NONE', #153, 4.499999999999997335 ) ;
#119 = PERSON_AND_ORGANIZATION ( #4, #51 ) ;
#120 = VERTEX_POINT ( 'NONE', #181 ) ;
#121 = LOCAL_TIME ( 15, 31, 28.00000000000000000, #160 ) ;
#122 = VERTEX_POINT ( 'NONE', #5 ) ;
#123 = ORIENTED_EDGE ( 'NONE', *, *, #3, .F. ) ;
#124 = CLOSED_SHELL ( 'NONE', ( #164, #20, #89, #85 ) ) ;
#125 = CARTESIAN_POINT ( 'NONE',  ( 2.513866563967056016E-13, 3.374459510989164838E-32, 72.00000000000000000 ) ) ;
#126 = APPLICATION_PROTOCOL_DEFINITION ( 'international standard', 'config_control_design', 1994, #101 ) ;
#127 = DIRECTION ( 'NONE',  ( -3.491481338843133355E-15, 1.224646799147353207E-16, -1.000000000000000000 ) ) ;
#128 = APPROVAL_STATUS ( 'not_yet_approved' ) ;
#129 = ORIENTED_EDGE ( 'NONE', *, *, #117, .T. ) ;
#130 = DIRECTION ( 'NONE',  ( 3.491481338843133355E-15, -1.224646799147353207E-16, 1.000000000000000000 ) ) ;
#131 = EDGE_CURVE ( 'NONE', #36, #36, #138, .T. ) ;
#132 = PRODUCT ( '42361', '42361', '', ( #66 ) ) ;
#133 = SECURITY_CLASSIFICATION ( '', '', #197 ) ;
#134 = DESIGN_CONTEXT ( 'detailed design', #101, 'design' ) ;
#135 = APPROVAL_ROLE ( '' ) ;
#136 = APPROVAL ( #128, 'UNSPECIFIED' ) ;
#137 = PERSON_AND_ORGANIZATION ( #4, #51 ) ;
#138 = CIRCLE ( 'NONE', #107, 4.999999999999989342 ) ;
#139 = ADVANCED_FACE ( 'NONE', ( #18 ), #187, .T. ) ;
#140 = PERSON_AND_ORGANIZATION ( #4, #51 ) ;
#141 = DATE_AND_TIME ( #172, #121 ) ;
#142 = CARTESIAN_POINT ( 'NONE',  ( 2.513866563967056016E-13, -8.817456953860941711E-15, 72.00000000000000000 ) ) ;
#143 = DIRECTION ( 'NONE',  ( -3.491481338843133355E-15, 1.224646799147353207E-16, -1.000000000000000000 ) ) ;
#144 = DIRECTION ( 'NONE',  ( 3.491481338843133355E-15, -1.224646799147353207E-16, 1.000000000000000000 ) ) ;
#145 = FACE_OUTER_BOUND ( 'NONE', #77, .T. ) ;
#146 = EDGE_CURVE ( 'NONE', #196, #196, #157, .T. ) ;
#147 = EDGE_LOOP ( 'NONE', ( #163 ) ) ;
#148 =( NAMED_UNIT ( * ) SI_UNIT ( $, .STERADIAN. ) SOLID_ANGLE_UNIT ( ) );
#149 = AXIS2_PLACEMENT_3D ( 'NONE', #27, #143, #94 ) ;
#150 = CC_DESIGN_APPROVAL ( #55, ( #169 ) ) ;
#151 = COORDINATED_UNIVERSAL_TIME_OFFSET ( 1, 0, .AHEAD. ) ;
#152 = DIRECTION ( 'NONE',  ( -3.491481338843133355E-15, 1.224646799147353207E-16, -1.000000000000000000 ) ) ;
#153 = AXIS2_PLACEMENT_3D ( 'NONE', #142, #78, #114 ) ;
#154 = DATE_AND_TIME ( #167, #37 ) ;
#155 = CC_DESIGN_APPROVAL ( #184, ( #133 ) ) ;
#156 = PERSON_AND_ORGANIZATION ( #4, #51 ) ;
#157 = CIRCLE ( 'NONE', #60, 4.999999999999995559 ) ;
#158 = PERSON_AND_ORGANIZATION ( #4, #51 ) ;
#159 = CARTESIAN_POINT ( 'NONE',  ( 7.681258945454893382E-14, -2.694222958124176809E-15, 22.00000000000000000 ) ) ;
#160 = COORDINATED_UNIVERSAL_TIME_OFFSET ( 1, 0, .AHEAD. ) ;
#161 = LOCAL_TIME ( 15, 31, 28.00000000000000000, #59 ) ;
#162 = DIRECTION ( 'NONE',  ( 0.0000000000000000000, 1.000000000000000000, 0.0000000000000000000 ) ) ;
#163 = ORIENTED_EDGE ( 'NONE', *, *, #3, .T. ) ;
#164 = ADVANCED_FACE ( 'NONE', ( #145 ), #177, .F. ) ;
#165 = PLANE ( 'NONE',  #35 ) ;
#166 = CARTESIAN_POINT ( 'NONE',  ( 7.681258945454893382E-14, 4.999999999999986677, 22.00000000000000000 ) ) ;
#167 = CALENDAR_DATE ( 2021, 15, 11 ) ;
#168 = PERSON_AND_ORGANIZATION_ROLE ( 'creator' ) ;
#169 = PRODUCT_DEFINITION_FORMATION_WITH_SPECIFIED_SOURCE ( 'ANY', '', #132, .NOT_KNOWN. ) ;
#170 = CARTESIAN_POINT ( 'NONE',  ( 2.496409157272840412E-13, 4.999999999999986677, 71.50000000000000000 ) ) ;
#171 = MANIFOLD_SOLID_BREP ( 'Corps-Déplacer/Copier1[1]', #124 ) ;
#172 = CALENDAR_DATE ( 2021, 15, 11 ) ;
#173 = FACE_OUTER_BOUND ( 'NONE', #113, .T. ) ;
#174 = CARTESIAN_POINT ( 'NONE',  ( 2.496409157272840412E-13, -8.756224613903574137E-15, 71.50000000000000000 ) ) ;
#175 = DIRECTION ( 'NONE',  ( -4.275831445896958607E-31, -1.000000000000000000, -1.224646799147353207E-16 ) ) ;
#176 = EDGE_CURVE ( 'NONE', #54, #54, #203, .T. ) ;
#177 = PLANE ( 'NONE',  #67 ) ;
#178 = CALENDAR_DATE ( 2021, 15, 11 ) ;
#179 =( NAMED_UNIT ( * ) PLANE_ANGLE_UNIT ( ) SI_UNIT ( $, .RADIAN. ) );
#180 = UNCERTAINTY_MEASURE_WITH_UNIT (LENGTH_MEASURE( 1.000000000000000082E-05 ), #2, 'distance_accuracy_value', 'NONE');
#181 = CARTESIAN_POINT ( 'NONE',  ( 2.513866563967056016E-13, 4.499999999999988454, 72.00000000000000000 ) ) ;
#182 = DIRECTION ( 'NONE',  ( 4.275831445896958607E-31, 1.000000000000000000, 1.224646799147353207E-16 ) ) ;
#183 = APPROVAL_PERSON_ORGANIZATION ( #17, #55, #15 ) ;
#184 = APPROVAL ( #72, 'UNSPECIFIED' ) ;
#185 = DIRECTION ( 'NONE',  ( -4.275831445896958607E-31, -1.000000000000000000, -1.224646799147353207E-16 ) ) ;
#186 = CC_DESIGN_PERSON_AND_ORGANIZATION_ASSIGNMENT ( #119, #168, ( #169 ) ) ;
#187 = PLANE ( 'NONE',  #9 ) ;
#188 = DIRECTION ( 'NONE',  ( -3.491481338843133355E-15, 1.224646799147353207E-16, -1.000000000000000000 ) ) ;
#189 = PERSON_AND_ORGANIZATION_ROLE ( 'creator' ) ;
#190 = FACE_OUTER_BOUND ( 'NONE', #147, .T. ) ;
#191 = CONICAL_SURFACE ( 'NONE', #112, 4.499999999999997335, 0.7853981633974466137 ) ;
#192 = CYLINDRICAL_SURFACE ( 'NONE', #73, 4.999999999999992006 ) ;
#193 = AXIS2_PLACEMENT_3D ( 'NONE', #58, #38, #83 ) ;
#194 = APPROVAL_DATE_TIME ( #21, #55 ) ;
#195 = ADVANCED_FACE ( 'NONE', ( #16, #201 ), #65, .T. ) ;
#196 = VERTEX_POINT ( 'NONE', #170 ) ;
#197 = SECURITY_CLASSIFICATION_LEVEL ( 'unclassified' ) ;
#198 = CC_DESIGN_DATE_AND_TIME_ASSIGNMENT ( #44, #41, ( #71 ) ) ;
#199 = EDGE_LOOP ( 'NONE', ( #97 ) ) ;
#200 = EDGE_LOOP ( 'NONE', ( #76 ) ) ;
#201 = FACE_OUTER_BOUND ( 'NONE', #200, .T. ) ;
#202 = DIRECTION ( 'NONE',  ( 4.275831445896958607E-31, 1.000000000000000000, 1.224646799147353207E-16 ) ) ;
#203 = CIRCLE ( 'NONE', #26, 4.999999999999989342 ) ;
ENDSEC;
END-ISO-10303-21;
