ISO-10303-21;
HEADER;
FILE_DESCRIPTION (( 'STEP AP203' ),
    '1' );
FILE_NAME ('42360.step',
    '2021-11-01T10:35:17',
    ( '' ),
    ( '' ),
    'SwSTEP 2.0',
    'SolidWorks 2019',
    '' );
FILE_SCHEMA (( 'CONFIG_CONTROL_DESIGN' ));
ENDSEC;

DATA;
#1 = ADVANCED_FACE ( 'NONE', ( #10, #59 ), #173, .T. ) ;
#2 = SECURITY_CLASSIFICATION ( '', '', #98 ) ;
#3 = DIRECTION ( 'NONE',  ( -3.491481338843133355E-15, 1.224646799147353454E-16, -1.000000000000000000 ) ) ;
#4 = AXIS2_PLACEMENT_3D ( 'NONE', #122, #196, #212 ) ;
#5 = CARTESIAN_POINT ( 'NONE',  ( 6.982962677686229240E-16, -2.453312193277542695E-17, 0.1999999999999989286 ) ) ;
#6 =( NAMED_UNIT ( * ) SI_UNIT ( $, .STERADIAN. ) SOLID_ANGLE_UNIT ( ) );
#7 = CC_DESIGN_PERSON_AND_ORGANIZATION_ASSIGNMENT ( #195, #143, ( #18 ) ) ;
#8 = CIRCLE ( 'NONE', #138, 10.00000000000000000 ) ;
#9 = EDGE_LOOP ( 'NONE', ( #108 ) ) ;
#10 = FACE_OUTER_BOUND ( 'NONE', #131, .T. ) ;
#11 = CARTESIAN_POINT ( 'NONE',  ( 3.631140592396858689E-13, 7.123858967643808858E-32, 104.0000000000000000 ) ) ;
#12 = FACE_OUTER_BOUND ( 'NONE', #35, .T. ) ;
#13 = CC_DESIGN_APPROVAL ( #84, ( #2 ) ) ;
#14 = ADVANCED_FACE ( 'NONE', ( #199 ), #22, .T. ) ;
#15 = CIRCLE ( 'NONE', #159, 9.800000000000000711 ) ;
#16 = DIRECTION ( 'NONE',  ( 4.275831445896959482E-31, 1.000000000000000000, 1.224646799147353454E-16 ) ) ;
#17 = FACE_OUTER_BOUND ( 'NONE', #217, .T. ) ;
#18 = PRODUCT ( '42360', '42360', '', ( #197 ) ) ;
#19 = EDGE_LOOP ( 'NONE', ( #74 ) ) ;
#20 =( LENGTH_UNIT ( ) NAMED_UNIT ( * ) SI_UNIT ( .MILLI., .METRE. ) );
#21 = CC_DESIGN_PERSON_AND_ORGANIZATION_ASSIGNMENT ( #181, #161, ( #30 ) ) ;
#22 = PLANE ( 'NONE',  #142 ) ;
#23 = PERSON_AND_ORGANIZATION ( #214, #113 ) ;
#24 = CC_DESIGN_SECURITY_CLASSIFICATION ( #2, ( #30 ) ) ;
#25 = PERSON_AND_ORGANIZATION ( #214, #113 ) ;
#26 = DIRECTION ( 'NONE',  ( 3.491481338843133355E-15, -1.224646799147353454E-16, 1.000000000000000000 ) ) ;
#27 = CALENDAR_DATE ( 2021, 1, 11 ) ;
#28 = DIRECTION ( 'NONE',  ( -4.275831445896959482E-31, -1.000000000000000000, -1.224646799147353454E-16 ) ) ;
#29 = DIRECTION ( 'NONE',  ( -3.491481338843133355E-15, 1.224646799147353454E-16, -1.000000000000000000 ) ) ;
#30 = PRODUCT_DEFINITION_FORMATION_WITH_SPECIFIED_SOURCE ( 'ANY', '', #18, .NOT_KNOWN. ) ;
#31 = DATE_AND_TIME ( #36, #42 ) ;
#32 = CIRCLE ( 'NONE', #183, 9.999999999999991118 ) ;
#33 = DIRECTION ( 'NONE',  ( 1.000000000000000000, 0.0000000000000000000, 0.0000000000000000000 ) ) ;
#34 = CARTESIAN_POINT ( 'NONE',  ( 3.631140592396858689E-13, 9.499999999999987566, 104.0000000000000000 ) ) ;
#35 = EDGE_LOOP ( 'NONE', ( #200 ) ) ;
#36 = CALENDAR_DATE ( 2021, 1, 11 ) ;
#37 = VERTEX_POINT ( 'NONE', #198 ) ;
#38 = DIRECTION ( 'NONE',  ( -3.491481338843133355E-15, 1.224646799147353454E-16, -1.000000000000000000 ) ) ;
#39 = AXIS2_PLACEMENT_3D ( 'NONE', #150, #166, #153 ) ;
#40 = APPROVAL_PERSON_ORGANIZATION ( #132, #105, #96 ) ;
#41 = EDGE_LOOP ( 'NONE', ( #145 ) ) ;
#42 = LOCAL_TIME ( 11, 35, 17.00000000000000000, #127 ) ;
#43 = EDGE_CURVE ( 'NONE', #54, #54, #8, .T. ) ;
#44 = DATE_TIME_ROLE ( 'creation_date' ) ;
#45 = DIRECTION ( 'NONE',  ( -3.491481338843133355E-15, 1.224646799147353454E-16, -1.000000000000000000 ) ) ;
#46 = DATE_TIME_ROLE ( 'classification_date' ) ;
#47 = PRODUCT_RELATED_PRODUCT_CATEGORY ( 'detail', '', ( #18 ) ) ;
#48 = CARTESIAN_POINT ( 'NONE',  ( 0.0000000000000000000, 0.0000000000000000000, 0.0000000000000000000 ) ) ;
#49 = CARTESIAN_POINT ( 'NONE',  ( -1.924128069121287657E-30, 6.748932766112746306E-32, -5.510921819100507160E-16 ) ) ;
#50 = FACE_OUTER_BOUND ( 'NONE', #41, .T. ) ;
#51 = CARTESIAN_POINT ( 'NONE',  ( 1.117274028429802674E-13, 9.999999999999987566, 32.00000000000000000 ) ) ;
#52 =( GEOMETRIC_REPRESENTATION_CONTEXT ( 3 ) GLOBAL_UNCERTAINTY_ASSIGNED_CONTEXT ( ( #125 ) ) GLOBAL_UNIT_ASSIGNED_CONTEXT ( ( #20, #175, #6 ) ) REPRESENTATION_CONTEXT ( 'NONE', 'WORKASPACE' ) );
#53 = ADVANCED_FACE ( 'NONE', ( #164, #208 ), #218, .T. ) ;
#54 = VERTEX_POINT ( 'NONE', #179 ) ;
#55 = EDGE_LOOP ( 'NONE', ( #144 ) ) ;
#56 = CC_DESIGN_PERSON_AND_ORGANIZATION_ASSIGNMENT ( #57, #128, ( #192 ) ) ;
#57 = PERSON_AND_ORGANIZATION ( #214, #113 ) ;
#58 = AXIS2_PLACEMENT_3D ( 'NONE', #49, #66, #139 ) ;
#59 = FACE_BOUND ( 'NONE', #178, .T. ) ;
#60 = SHAPE_DEFINITION_REPRESENTATION ( #83, #86 ) ;
#61 = EDGE_CURVE ( 'NONE', #37, #37, #32, .T. ) ;
#62 = CARTESIAN_POINT ( 'NONE',  ( 3.613683185702642581E-13, -1.267509437117510519E-14, 103.4999999999999858 ) ) ;
#63 = APPROVAL_STATUS ( 'not_yet_approved' ) ;
#64 = CC_DESIGN_PERSON_AND_ORGANIZATION_ASSIGNMENT ( #25, #204, ( #30 ) ) ;
#65 = AXIS2_PLACEMENT_3D ( 'NONE', #135, #26, #28 ) ;
#66 = DIRECTION ( 'NONE',  ( 3.491481338843133355E-15, -1.224646799147353454E-16, 1.000000000000000000 ) ) ;
#67 = AXIS2_PLACEMENT_3D ( 'NONE', #48, #29, #103 ) ;
#68 = PLANE ( 'NONE',  #65 ) ;
#69 = APPLICATION_CONTEXT ( 'configuration controlled 3d designs of mechanical parts and assemblies' ) ;
#70 = AXIS2_PLACEMENT_3D ( 'NONE', #193, #3, #191 ) ;
#71 = CLOSED_SHELL ( 'NONE', ( #157, #202, #1, #79 ) ) ;
#72 = EDGE_LOOP ( 'NONE', ( #95 ) ) ;
#73 = EDGE_LOOP ( 'NONE', ( #216 ) ) ;
#74 = ORIENTED_EDGE ( 'NONE', *, *, #155, .F. ) ;
#75 = APPROVAL ( #89, 'UNSPECIFIED' ) ;
#76 = CARTESIAN_POINT ( 'NONE',  ( 3.631140592396858689E-13, -1.273632671113247592E-14, 104.0000000000000000 ) ) ;
#77 = DIRECTION ( 'NONE',  ( -4.282846870592448247E-31, -1.000000000000000000, -1.226656096638776894E-16 ) ) ;
#78 = CARTESIAN_POINT ( 'NONE',  ( 1.117274028429802674E-13, -3.918869757271531052E-15, 32.00000000000000000 ) ) ;
#79 = ADVANCED_FACE ( 'NONE', ( #117 ), #205, .F. ) ;
#80 = ADVANCED_FACE ( 'NONE', ( #17 ), #101, .F. ) ;
#81 = DIRECTION ( 'NONE',  ( 3.491481338843133355E-15, -1.224646799147353454E-16, 1.000000000000000000 ) ) ;
#82 = DIRECTION ( 'NONE',  ( -3.491481338843133355E-15, 1.224646799147353454E-16, -1.000000000000000000 ) ) ;
#83 = PRODUCT_DEFINITION_SHAPE ( 'NONE', 'NONE',  #192 ) ;
#84 = APPROVAL ( #206, 'UNSPECIFIED' ) ;
#85 = CARTESIAN_POINT ( 'NONE',  ( -8.394379866361199614E-30, -9.800000000000000711, -2.404245949412002713E-15 ) ) ;
#86 = ADVANCED_BREP_SHAPE_REPRESENTATION ( '42360', ( #185, #102, #213 ), #52 ) ;
#87 = LOCAL_TIME ( 11, 35, 17.00000000000000000, #94 ) ;
#88 = VERTEX_POINT ( 'NONE', #34 ) ;
#89 = APPROVAL_STATUS ( 'not_yet_approved' ) ;
#90 = ORIENTED_EDGE ( 'NONE', *, *, #43, .F. ) ;
#91 = CIRCLE ( 'NONE', #111, 10.00000000000000000 ) ;
#92 = CALENDAR_DATE ( 2021, 1, 11 ) ;
#93 = AXIS2_PLACEMENT_3D ( 'NONE', #5, #119, #133 ) ;
#94 = COORDINATED_UNIVERSAL_TIME_OFFSET ( 1, 0, .AHEAD. ) ;
#95 = ORIENTED_EDGE ( 'NONE', *, *, #43, .T. ) ;
#96 = APPROVAL_ROLE ( '' ) ;
#97 = COORDINATED_UNIVERSAL_TIME_OFFSET ( 1, 0, .AHEAD. ) ;
#98 = SECURITY_CLASSIFICATION_LEVEL ( 'unclassified' ) ;
#99 = CLOSED_SHELL ( 'NONE', ( #190, #14, #53, #80 ) ) ;
#100 = EDGE_CURVE ( 'NONE', #88, #88, #158, .T. ) ;
#101 = PLANE ( 'NONE',  #58 ) ;
#102 = MANIFOLD_SOLID_BREP ( 'Corps-Déplacer/Copier1[2]', #99 ) ;
#103 = DIRECTION ( 'NONE',  ( 4.275831445896960358E-31, 1.000000000000000000, 1.224646799147353454E-16 ) ) ;
#104 = DIRECTION ( 'NONE',  ( 0.0000000000000000000, 1.000000000000000000, 0.0000000000000000000 ) ) ;
#105 = APPROVAL ( #63, 'UNSPECIFIED' ) ;
#106 = APPROVAL_DATE_TIME ( #31, #75 ) ;
#107 = APPROVAL_ROLE ( '' ) ;
#108 = ORIENTED_EDGE ( 'NONE', *, *, #110, .T. ) ;
#109 = ORIENTED_EDGE ( 'NONE', *, *, #174, .F. ) ;
#110 = EDGE_CURVE ( 'NONE', #126, #126, #15, .T. ) ;
#111 = AXIS2_PLACEMENT_3D ( 'NONE', #172, #223, #222 ) ;
#112 = CC_DESIGN_APPROVAL ( #105, ( #30 ) ) ;
#113 = ORGANIZATION ( 'UNSPECIFIED', 'UNSPECIFIED', '' ) ;
#114 = ORIENTED_EDGE ( 'NONE', *, *, #110, .F. ) ;
#115 = PERSON_AND_ORGANIZATION_ROLE ( 'classification_officer' ) ;
#116 = APPLICATION_CONTEXT ( 'configuration controlled 3d designs of mechanical parts and assemblies' ) ;
#117 = FACE_OUTER_BOUND ( 'NONE', #162, .T. ) ;
#118 = CALENDAR_DATE ( 2021, 1, 11 ) ;
#119 = DIRECTION ( 'NONE',  ( 3.491481338843133355E-15, -1.226656096638776648E-16, 1.000000000000000000 ) ) ;
#120 = LOCAL_TIME ( 11, 35, 17.00000000000000000, #189 ) ;
#121 = CARTESIAN_POINT ( 'NONE',  ( -4.197189933180599807E-30, 1.208602834858988389E-31, -1.202122974706001356E-15 ) ) ;
#122 = CARTESIAN_POINT ( 'NONE',  ( 0.0000000000000000000, 0.0000000000000000000, 0.0000000000000000000 ) ) ;
#123 = PERSON_AND_ORGANIZATION ( #214, #113 ) ;
#124 = CIRCLE ( 'NONE', #39, 9.999999999999991118 ) ;
#125 = UNCERTAINTY_MEASURE_WITH_UNIT (LENGTH_MEASURE( 1.000000000000000082E-05 ), #20, 'distance_accuracy_value', 'NONE');
#126 = VERTEX_POINT ( 'NONE', #85 ) ;
#127 = COORDINATED_UNIVERSAL_TIME_OFFSET ( 1, 0, .AHEAD. ) ;
#128 = PERSON_AND_ORGANIZATION_ROLE ( 'creator' ) ;
#129 = DIRECTION ( 'NONE',  ( 0.0000000000000000000, 1.000000000000000000, 0.0000000000000000000 ) ) ;
#130 = CALENDAR_DATE ( 2021, 1, 11 ) ;
#131 = EDGE_LOOP ( 'NONE', ( #90 ) ) ;
#132 = PERSON_AND_ORGANIZATION ( #214, #113 ) ;
#133 = DIRECTION ( 'NONE',  ( -4.237045877651918877E-31, -1.000000000000000000, -1.219727444046192488E-16 ) ) ;
#134 = DATE_AND_TIME ( #92, #87 ) ;
#135 = CARTESIAN_POINT ( 'NONE',  ( 1.117274028429802674E-13, 7.498798913309280376E-32, 32.00000000000000000 ) ) ;
#136 = COORDINATED_UNIVERSAL_TIME_OFFSET ( 1, 0, .AHEAD. ) ;
#137 = CYLINDRICAL_SURFACE ( 'NONE', #67, 9.999999999999989342 ) ;
#138 = AXIS2_PLACEMENT_3D ( 'NONE', #62, #82, #194 ) ;
#139 = DIRECTION ( 'NONE',  ( -4.275831445896959482E-31, -1.000000000000000000, -1.224646799147353454E-16 ) ) ;
#140 = CARTESIAN_POINT ( 'NONE',  ( 0.0000000000000000000, 0.0000000000000000000, 0.0000000000000000000 ) ) ;
#141 = VERTEX_POINT ( 'NONE', #51 ) ;
#142 = AXIS2_PLACEMENT_3D ( 'NONE', #147, #81, #170 ) ;
#143 = PERSON_AND_ORGANIZATION_ROLE ( 'design_owner' ) ;
#144 = ORIENTED_EDGE ( 'NONE', *, *, #61, .T. ) ;
#145 = ORIENTED_EDGE ( 'NONE', *, *, #61, .F. ) ;
#146 = AXIS2_PLACEMENT_3D ( 'NONE', #11, #45, #16 ) ;
#147 = CARTESIAN_POINT ( 'NONE',  ( 1.117274028429802674E-13, 7.498798913309280376E-32, 32.00000000000000000 ) ) ;
#148 = DATE_AND_TIME ( #118, #220 ) ;
#149 = DIRECTION ( 'NONE',  ( -3.491481338843133355E-15, 1.224646799147353454E-16, -1.000000000000000000 ) ) ;
#150 = CARTESIAN_POINT ( 'NONE',  ( 1.117274028429802674E-13, -3.918869757271531052E-15, 32.00000000000000000 ) ) ;
#151 = CYLINDRICAL_SURFACE ( 'NONE', #4, 9.999999999999994671 ) ;
#152 = APPROVAL_PERSON_ORGANIZATION ( #123, #75, #107 ) ;
#153 = DIRECTION ( 'NONE',  ( 0.0000000000000000000, 1.000000000000000000, 0.0000000000000000000 ) ) ;
#154 = CARTESIAN_POINT ( 'NONE',  ( 6.982962677686186838E-16, -10.00000000000000000, 0.1999999999999977074 ) ) ;
#155 = EDGE_CURVE ( 'NONE', #177, #177, #91, .T. ) ;
#156 = DIRECTION ( 'NONE',  ( 0.0000000000000000000, 0.0000000000000000000, 1.000000000000000000 ) ) ;
#157 = ADVANCED_FACE ( 'NONE', ( #187 ), #68, .F. ) ;
#158 = CIRCLE ( 'NONE', #70, 9.500000000000000000 ) ;
#159 = AXIS2_PLACEMENT_3D ( 'NONE', #121, #207, #77 ) ;
#160 = ORIENTED_EDGE ( 'NONE', *, *, #100, .T. ) ;
#161 = PERSON_AND_ORGANIZATION_ROLE ( 'design_supplier' ) ;
#162 = EDGE_LOOP ( 'NONE', ( #182 ) ) ;
#163 = APPROVAL_ROLE ( '' ) ;
#164 = FACE_BOUND ( 'NONE', #9, .T. ) ;
#165 = APPROVAL_DATE_TIME ( #221, #84 ) ;
#166 = DIRECTION ( 'NONE',  ( -3.491481338843133355E-15, 1.224646799147353454E-16, -1.000000000000000000 ) ) ;
#167 = CC_DESIGN_DATE_AND_TIME_ASSIGNMENT ( #219, #46, ( #2 ) ) ;
#168 = APPROVAL_PERSON_ORGANIZATION ( #201, #84, #163 ) ;
#169 = CC_DESIGN_APPROVAL ( #75, ( #192 ) ) ;
#170 = DIRECTION ( 'NONE',  ( -4.275831445896959482E-31, -1.000000000000000000, -1.224646799147353454E-16 ) ) ;
#171 = FACE_OUTER_BOUND ( 'NONE', #72, .T. ) ;
#172 = CARTESIAN_POINT ( 'NONE',  ( 6.982962677686229240E-16, -2.453312193277542695E-17, 0.1999999999999989286 ) ) ;
#173 = CONICAL_SURFACE ( 'NONE', #203, 9.500000000000000000, 0.7853981633974344012 ) ;
#174 = EDGE_CURVE ( 'NONE', #141, #141, #124, .T. ) ;
#175 =( NAMED_UNIT ( * ) PLANE_ANGLE_UNIT ( ) SI_UNIT ( $, .RADIAN. ) );
#176 = DESIGN_CONTEXT ( 'detailed design', #69, 'design' ) ;
#177 = VERTEX_POINT ( 'NONE', #154 ) ;
#178 = EDGE_LOOP ( 'NONE', ( #160 ) ) ;
#179 = CARTESIAN_POINT ( 'NONE',  ( 3.613683185702642581E-13, 9.999999999999987566, 103.4999999999999858 ) ) ;
#180 = EDGE_LOOP ( 'NONE', ( #109 ) ) ;
#181 = PERSON_AND_ORGANIZATION ( #214, #113 ) ;
#182 = ORIENTED_EDGE ( 'NONE', *, *, #100, .F. ) ;
#183 = AXIS2_PLACEMENT_3D ( 'NONE', #78, #149, #104 ) ;
#184 = CC_DESIGN_DATE_AND_TIME_ASSIGNMENT ( #134, #44, ( #192 ) ) ;
#185 = MANIFOLD_SOLID_BREP ( 'Corps-Déplacer/Copier1[1]', #71 ) ;
#186 = APPROVAL_DATE_TIME ( #148, #105 ) ;
#187 = FACE_OUTER_BOUND ( 'NONE', #55, .T. ) ;
#188 = LOCAL_TIME ( 11, 35, 17.00000000000000000, #97 ) ;
#189 = COORDINATED_UNIVERSAL_TIME_OFFSET ( 1, 0, .AHEAD. ) ;
#190 = ADVANCED_FACE ( 'NONE', ( #12, #209 ), #137, .T. ) ;
#191 = DIRECTION ( 'NONE',  ( 0.0000000000000000000, 1.000000000000000000, 0.0000000000000000000 ) ) ;
#192 = PRODUCT_DEFINITION ( 'UNKNOWN', '', #30, #176 ) ;
#193 = CARTESIAN_POINT ( 'NONE',  ( 3.631140592396858689E-13, -1.273632671113247592E-14, 104.0000000000000000 ) ) ;
#194 = DIRECTION ( 'NONE',  ( 0.0000000000000000000, 1.000000000000000000, 0.0000000000000000000 ) ) ;
#195 = PERSON_AND_ORGANIZATION ( #214, #113 ) ;
#196 = DIRECTION ( 'NONE',  ( -3.491481338843133355E-15, 1.224646799147353454E-16, -1.000000000000000000 ) ) ;
#197 = MECHANICAL_CONTEXT ( 'NONE', #116, 'mechanical' ) ;
#198 = CARTESIAN_POINT ( 'NONE',  ( 1.117274028429802674E-13, 9.999999999999987566, 32.00000000000000000 ) ) ;
#199 = FACE_OUTER_BOUND ( 'NONE', #180, .T. ) ;
#200 = ORIENTED_EDGE ( 'NONE', *, *, #174, .T. ) ;
#201 = PERSON_AND_ORGANIZATION ( #214, #113 ) ;
#202 = ADVANCED_FACE ( 'NONE', ( #50, #171 ), #151, .T. ) ;
#203 = AXIS2_PLACEMENT_3D ( 'NONE', #76, #38, #129 ) ;
#204 = PERSON_AND_ORGANIZATION_ROLE ( 'creator' ) ;
#205 = PLANE ( 'NONE',  #146 ) ;
#206 = APPROVAL_STATUS ( 'not_yet_approved' ) ;
#207 = DIRECTION ( 'NONE',  ( 3.491481338843133355E-15, -1.226656096638776648E-16, 1.000000000000000000 ) ) ;
#208 = FACE_OUTER_BOUND ( 'NONE', #19, .T. ) ;
#209 = FACE_OUTER_BOUND ( 'NONE', #73, .T. ) ;
#210 = CC_DESIGN_PERSON_AND_ORGANIZATION_ASSIGNMENT ( #23, #115, ( #2 ) ) ;
#211 = APPLICATION_PROTOCOL_DEFINITION ( 'international standard', 'config_control_design', 1994, #116 ) ;
#212 = DIRECTION ( 'NONE',  ( 4.275831445896959482E-31, 1.000000000000000000, 1.224646799147353454E-16 ) ) ;
#213 = AXIS2_PLACEMENT_3D ( 'NONE', #140, #156, #33 ) ;
#214 = PERSON ( 'UNSPECIFIED', 'UNSPECIFIED', 'UNSPECIFIED', ('UNSPECIFIED'), ('UNSPECIFIED'), ('UNSPECIFIED') ) ;
#215 = APPLICATION_PROTOCOL_DEFINITION ( 'international standard', 'config_control_design', 1994, #69 ) ;
#216 = ORIENTED_EDGE ( 'NONE', *, *, #155, .T. ) ;
#217 = EDGE_LOOP ( 'NONE', ( #114 ) ) ;
#218 = CONICAL_SURFACE ( 'NONE', #93, 10.00000000000000000, 0.7853981633974449483 ) ;
#219 = DATE_AND_TIME ( #130, #188 ) ;
#220 = LOCAL_TIME ( 11, 35, 17.00000000000000000, #136 ) ;
#221 = DATE_AND_TIME ( #27, #120 ) ;
#222 = DIRECTION ( 'NONE',  ( -4.237045877651918877E-31, -1.000000000000000000, -1.219727444046192488E-16 ) ) ;
#223 = DIRECTION ( 'NONE',  ( 3.491481338843133355E-15, -1.226656096638776648E-16, 1.000000000000000000 ) ) ;
ENDSEC;
END-ISO-10303-21;
