ISO-10303-21;
HEADER;
FILE_DESCRIPTION (( 'STEP AP203' ),
    '1' );
FILE_NAME ('42358.step',
    '2021-11-01T10:35:16',
    ( '' ),
    ( '' ),
    'SwSTEP 2.0',
    'SolidWorks 2019',
    '' );
FILE_SCHEMA (( 'CONFIG_CONTROL_DESIGN' ));
ENDSEC;

DATA;
#1 = CYLINDRICAL_SURFACE ( 'NONE', #159, 7.999999999999992895 ) ;
#2 = ADVANCED_FACE ( 'NONE', ( #194, #56 ), #1, .T. ) ;
#3 = EDGE_LOOP ( 'NONE', ( #209 ) ) ;
#4 = DIRECTION ( 'NONE',  ( 4.275831445896957731E-31, 1.000000000000000000, 1.224646799147353207E-16 ) ) ;
#5 = CC_DESIGN_SECURITY_CLASSIFICATION ( #207, ( #127 ) ) ;
#6 = ADVANCED_BREP_SHAPE_REPRESENTATION ( '42358', ( #102, #32, #107 ), #149 ) ;
#7 = CARTESIAN_POINT ( 'NONE',  ( 3.194705425041467083E-13, -1.120551821219828183E-14, 91.50000000000000000 ) ) ;
#8 = VERTEX_POINT ( 'NONE', #75 ) ;
#9 = CARTESIAN_POINT ( 'NONE',  ( 9.077851480992146724E-14, 5.999039130647422768E-32, 26.00000000000000000 ) ) ;
#10 = CIRCLE ( 'NONE', #63, 7.999999999999994671 ) ;
#11 = APPROVAL_PERSON_ORGANIZATION ( #98, #104, #46 ) ;
#12 = EDGE_CURVE ( 'NONE', #108, #108, #10, .T. ) ;
#13 = DIRECTION ( 'NONE',  ( -3.491481338843133355E-15, 1.224646799147353207E-16, -1.000000000000000000 ) ) ;
#14 = APPROVAL_ROLE ( '' ) ;
#15 = LOCAL_TIME ( 11, 35, 16.00000000000000000, #200 ) ;
#16 = PERSON_AND_ORGANIZATION_ROLE ( 'creator' ) ;
#17 = CARTESIAN_POINT ( 'NONE',  ( 0.0000000000000000000, 0.0000000000000000000, 0.0000000000000000000 ) ) ;
#18 = COORDINATED_UNIVERSAL_TIME_OFFSET ( 1, 0, .AHEAD. ) ;
#19 = AXIS2_PLACEMENT_3D ( 'NONE', #162, #177, #112 ) ;
#20 = CYLINDRICAL_SURFACE ( 'NONE', #55, 7.999999999999998224 ) ;
#21 = EDGE_LOOP ( 'NONE', ( #52 ) ) ;
#22 = EDGE_LOOP ( 'NONE', ( #169 ) ) ;
#23 = AXIS2_PLACEMENT_3D ( 'NONE', #160, #126, #74 ) ;
#24 = DIRECTION ( 'NONE',  ( -4.275831445896958607E-31, -1.000000000000000000, -1.224646799147353207E-16 ) ) ;
#25 = CARTESIAN_POINT ( 'NONE',  ( -1.068958064534521764E-30, 3.749400168894236375E-32, -3.061617579456146159E-16 ) ) ;
#26 = PLANE ( 'NONE',  #44 ) ;
#27 = VERTEX_POINT ( 'NONE', #212 ) ;
#28 = LOCAL_TIME ( 11, 35, 16.00000000000000000, #96 ) ;
#29 = CARTESIAN_POINT ( 'NONE',  ( 3.212162831735682182E-13, 7.499999999999991118, 92.00000000000000000 ) ) ;
#30 = APPROVAL_STATUS ( 'not_yet_approved' ) ;
#31 = ORGANIZATION ( 'UNSPECIFIED', 'UNSPECIFIED', '' ) ;
#32 = MANIFOLD_SOLID_BREP ( 'Corps-Déplacer/Copier1[2]', #58 ) ;
#33 = APPROVAL_DATE_TIME ( #218, #141 ) ;
#34 = APPROVAL_DATE_TIME ( #134, #104 ) ;
#35 = FACE_OUTER_BOUND ( 'NONE', #71, .T. ) ;
#36 = CARTESIAN_POINT ( 'NONE',  ( 3.212162831735682182E-13, -1.126675055215564941E-14, 92.00000000000000000 ) ) ;
#37 = ORIENTED_EDGE ( 'NONE', *, *, #120, .T. ) ;
#38 = EDGE_LOOP ( 'NONE', ( #157 ) ) ;
#39 =( LENGTH_UNIT ( ) NAMED_UNIT ( * ) SI_UNIT ( .MILLI., .METRE. ) );
#40 = AXIS2_PLACEMENT_3D ( 'NONE', #90, #78, #143 ) ;
#41 = FACE_OUTER_BOUND ( 'NONE', #21, .T. ) ;
#42 = DIRECTION ( 'NONE',  ( -4.333342374871280669E-31, -1.000000000000000000, -1.219727444046192488E-16 ) ) ;
#43 = VERTEX_POINT ( 'NONE', #175 ) ;
#44 = AXIS2_PLACEMENT_3D ( 'NONE', #9, #213, #57 ) ;
#45 = PERSON_AND_ORGANIZATION_ROLE ( 'classification_officer' ) ;
#46 = APPROVAL_ROLE ( '' ) ;
#47 = APPLICATION_PROTOCOL_DEFINITION ( 'international standard', 'config_control_design', 1994, #88 ) ;
#48 = ADVANCED_FACE ( 'NONE', ( #124, #35 ), #20, .T. ) ;
#49 = PERSON_AND_ORGANIZATION ( #60, #31 ) ;
#50 = EDGE_LOOP ( 'NONE', ( #174 ) ) ;
#51 = CC_DESIGN_PERSON_AND_ORGANIZATION_ASSIGNMENT ( #186, #45, ( #207 ) ) ;
#52 = ORIENTED_EDGE ( 'NONE', *, *, #116, .T. ) ;
#53 = DIRECTION ( 'NONE',  ( -3.491481338843133355E-15, 1.224646799147353207E-16, -1.000000000000000000 ) ) ;
#54 = EDGE_LOOP ( 'NONE', ( #154 ) ) ;
#55 = AXIS2_PLACEMENT_3D ( 'NONE', #121, #222, #68 ) ;
#56 = FACE_OUTER_BOUND ( 'NONE', #101, .T. ) ;
#57 = DIRECTION ( 'NONE',  ( -4.275831445896958607E-31, -1.000000000000000000, -1.224646799147353207E-16 ) ) ;
#58 = CLOSED_SHELL ( 'NONE', ( #2, #205, #217, #198 ) ) ;
#59 = DIRECTION ( 'NONE',  ( 0.0000000000000000000, 1.000000000000000000, 0.0000000000000000000 ) ) ;
#60 = PERSON ( 'UNSPECIFIED', 'UNSPECIFIED', 'UNSPECIFIED', ('UNSPECIFIED'), ('UNSPECIFIED'), ('UNSPECIFIED') ) ;
#61 = DIRECTION ( 'NONE',  ( 0.0000000000000000000, 1.000000000000000000, 0.0000000000000000000 ) ) ;
#62 = MECHANICAL_CONTEXT ( 'NONE', #77, 'mechanical' ) ;
#63 = AXIS2_PLACEMENT_3D ( 'NONE', #106, #103, #118 ) ;
#64 = DATE_TIME_ROLE ( 'creation_date' ) ;
#65 = DATE_AND_TIME ( #84, #81 ) ;
#66 = DIRECTION ( 'NONE',  ( 0.0000000000000000000, 0.0000000000000000000, 1.000000000000000000 ) ) ;
#67 = CC_DESIGN_DATE_AND_TIME_ASSIGNMENT ( #150, #203, ( #207 ) ) ;
#68 = DIRECTION ( 'NONE',  ( 4.275831445896958607E-31, 1.000000000000000000, 1.224646799147353207E-16 ) ) ;
#69 = EDGE_LOOP ( 'NONE', ( #119 ) ) ;
#70 = FACE_BOUND ( 'NONE', #211, .T. ) ;
#71 = EDGE_LOOP ( 'NONE', ( #37 ) ) ;
#72 = CLOSED_SHELL ( 'NONE', ( #168, #48, #87, #129 ) ) ;
#73 = FACE_OUTER_BOUND ( 'NONE', #171, .T. ) ;
#74 = DIRECTION ( 'NONE',  ( -4.282846870592447371E-31, -1.000000000000000000, -1.226656096638776648E-16 ) ) ;
#75 = CARTESIAN_POINT ( 'NONE',  ( -6.681241118124219615E-30, -7.800000000000001599, -1.913583510756491955E-15 ) ) ;
#76 = FACE_OUTER_BOUND ( 'NONE', #54, .T. ) ;
#77 = APPLICATION_CONTEXT ( 'configuration controlled 3d designs of mechanical parts and assemblies' ) ;
#78 = DIRECTION ( 'NONE',  ( -3.491481338843133355E-15, 1.224646799147353207E-16, -1.000000000000000000 ) ) ;
#79 = PERSON_AND_ORGANIZATION ( #60, #31 ) ;
#80 = COORDINATED_UNIVERSAL_TIME_OFFSET ( 1, 0, .AHEAD. ) ;
#81 = LOCAL_TIME ( 11, 35, 16.00000000000000000, #184 ) ;
#82 = SHAPE_DEFINITION_REPRESENTATION ( #138, #6 ) ;
#83 = CC_DESIGN_PERSON_AND_ORGANIZATION_ASSIGNMENT ( #147, #16, ( #127 ) ) ;
#84 = CALENDAR_DATE ( 2021, 1, 11 ) ;
#85 = AXIS2_PLACEMENT_3D ( 'NONE', #7, #13, #59 ) ;
#86 = FACE_OUTER_BOUND ( 'NONE', #38, .T. ) ;
#87 = ADVANCED_FACE ( 'NONE', ( #86, #70 ), #176, .T. ) ;
#88 = APPLICATION_CONTEXT ( 'configuration controlled 3d designs of mechanical parts and assemblies' ) ;
#89 = AXIS2_PLACEMENT_3D ( 'NONE', #199, #180, #42 ) ;
#90 = CARTESIAN_POINT ( 'NONE',  ( 3.212162831735682182E-13, 5.624099184981951250E-32, 92.00000000000000000 ) ) ;
#91 = FACE_OUTER_BOUND ( 'NONE', #22, .T. ) ;
#92 =( NAMED_UNIT ( * ) SI_UNIT ( $, .STERADIAN. ) SOLID_ANGLE_UNIT ( ) );
#93 = AXIS2_PLACEMENT_3D ( 'NONE', #122, #172, #192 ) ;
#94 = CARTESIAN_POINT ( 'NONE',  ( 9.077851480992146724E-14, 7.999999999999991118, 26.00000000000000000 ) ) ;
#95 = APPROVAL_DATE_TIME ( #65, #125 ) ;
#96 = COORDINATED_UNIVERSAL_TIME_OFFSET ( 1, 0, .AHEAD. ) ;
#97 = APPROVAL_STATUS ( 'not_yet_approved' ) ;
#98 = PERSON_AND_ORGANIZATION ( #60, #31 ) ;
#99 = AXIS2_PLACEMENT_3D ( 'NONE', #25, #178, #130 ) ;
#100 = LOCAL_TIME ( 11, 35, 16.00000000000000000, #18 ) ;
#101 = EDGE_LOOP ( 'NONE', ( #105 ) ) ;
#102 = MANIFOLD_SOLID_BREP ( 'Corps-Déplacer/Copier1[1]', #72 ) ;
#103 = DIRECTION ( 'NONE',  ( -3.491481338843133355E-15, 1.224646799147353207E-16, -1.000000000000000000 ) ) ;
#104 = APPROVAL ( #133, 'UNSPECIFIED' ) ;
#105 = ORIENTED_EDGE ( 'NONE', *, *, #148, .T. ) ;
#106 = CARTESIAN_POINT ( 'NONE',  ( 9.077851480992146724E-14, -3.184081677783118191E-15, 26.00000000000000000 ) ) ;
#107 = AXIS2_PLACEMENT_3D ( 'NONE', #17, #66, #216 ) ;
#108 = VERTEX_POINT ( 'NONE', #94 ) ;
#109 = PLANE ( 'NONE',  #40 ) ;
#110 = VERTEX_POINT ( 'NONE', #29 ) ;
#111 = AXIS2_PLACEMENT_3D ( 'NONE', #128, #144, #61 ) ;
#112 = DIRECTION ( 'NONE',  ( -4.333342374871280669E-31, -1.000000000000000000, -1.219727444046192488E-16 ) ) ;
#113 = CALENDAR_DATE ( 2021, 1, 11 ) ;
#114 = SECURITY_CLASSIFICATION_LEVEL ( 'unclassified' ) ;
#115 = CIRCLE ( 'NONE', #93, 7.999999999999994671 ) ;
#116 = EDGE_CURVE ( 'NONE', #43, #43, #115, .T. ) ;
#117 = PERSON_AND_ORGANIZATION_ROLE ( 'creator' ) ;
#118 = DIRECTION ( 'NONE',  ( 0.0000000000000000000, 1.000000000000000000, 0.0000000000000000000 ) ) ;
#119 = ORIENTED_EDGE ( 'NONE', *, *, #12, .F. ) ;
#120 = EDGE_CURVE ( 'NONE', #145, #145, #179, .T. ) ;
#121 = CARTESIAN_POINT ( 'NONE',  ( 0.0000000000000000000, 0.0000000000000000000, 0.0000000000000000000 ) ) ;
#122 = CARTESIAN_POINT ( 'NONE',  ( 9.077851480992146724E-14, -3.184081677783118191E-15, 26.00000000000000000 ) ) ;
#123 = CC_DESIGN_APPROVAL ( #104, ( #207 ) ) ;
#124 = FACE_OUTER_BOUND ( 'NONE', #50, .T. ) ;
#125 = APPROVAL ( #30, 'UNSPECIFIED' ) ;
#126 = DIRECTION ( 'NONE',  ( 3.491481338843133355E-15, -1.226656096638776648E-16, 1.000000000000000000 ) ) ;
#127 = PRODUCT_DEFINITION_FORMATION_WITH_SPECIFIED_SOURCE ( 'ANY', '', #170, .NOT_KNOWN. ) ;
#128 = CARTESIAN_POINT ( 'NONE',  ( 3.212162831735682182E-13, -1.126675055215564941E-14, 92.00000000000000000 ) ) ;
#129 = ADVANCED_FACE ( 'NONE', ( #73 ), #109, .F. ) ;
#130 = DIRECTION ( 'NONE',  ( -4.275831445896958607E-31, -1.000000000000000000, -1.224646799147353207E-16 ) ) ;
#131 = APPROVAL_ROLE ( '' ) ;
#132 = CC_DESIGN_PERSON_AND_ORGANIZATION_ASSIGNMENT ( #79, #117, ( #173 ) ) ;
#133 = APPROVAL_STATUS ( 'not_yet_approved' ) ;
#134 = DATE_AND_TIME ( #220, #28 ) ;
#135 = PERSON_AND_ORGANIZATION_ROLE ( 'design_supplier' ) ;
#136 = PERSON_AND_ORGANIZATION_ROLE ( 'design_owner' ) ;
#137 = ORIENTED_EDGE ( 'NONE', *, *, #167, .F. ) ;
#138 = PRODUCT_DEFINITION_SHAPE ( 'NONE', 'NONE',  #173 ) ;
#139 = CARTESIAN_POINT ( 'NONE',  ( 0.0000000000000000000, 0.0000000000000000000, 0.0000000000000000000 ) ) ;
#140 = EDGE_LOOP ( 'NONE', ( #206 ) ) ;
#141 = APPROVAL ( #97, 'UNSPECIFIED' ) ;
#142 = AXIS2_PLACEMENT_3D ( 'NONE', #163, #214, #24 ) ;
#143 = DIRECTION ( 'NONE',  ( 4.275831445896958607E-31, 1.000000000000000000, 1.224646799147353207E-16 ) ) ;
#144 = DIRECTION ( 'NONE',  ( -3.491481338843133355E-15, 1.224646799147353207E-16, -1.000000000000000000 ) ) ;
#145 = VERTEX_POINT ( 'NONE', #161 ) ;
#146 = PLANE ( 'NONE',  #142 ) ;
#147 = PERSON_AND_ORGANIZATION ( #60, #31 ) ;
#148 = EDGE_CURVE ( 'NONE', #27, #27, #210, .T. ) ;
#149 =( GEOMETRIC_REPRESENTATION_CONTEXT ( 3 ) GLOBAL_UNCERTAINTY_ASSIGNED_CONTEXT ( ( #190 ) ) GLOBAL_UNIT_ASSIGNED_CONTEXT ( ( #39, #164, #92 ) ) REPRESENTATION_CONTEXT ( 'NONE', 'WORKASPACE' ) );
#150 = DATE_AND_TIME ( #113, #100 ) ;
#151 = PERSON_AND_ORGANIZATION ( #60, #31 ) ;
#152 = EDGE_CURVE ( 'NONE', #8, #8, #166, .T. ) ;
#153 = DATE_AND_TIME ( #219, #15 ) ;
#154 = ORIENTED_EDGE ( 'NONE', *, *, #152, .F. ) ;
#155 = DESIGN_CONTEXT ( 'detailed design', #88, 'design' ) ;
#156 = CC_DESIGN_DATE_AND_TIME_ASSIGNMENT ( #153, #64, ( #173 ) ) ;
#157 = ORIENTED_EDGE ( 'NONE', *, *, #120, .F. ) ;
#158 = CIRCLE ( 'NONE', #111, 7.500000000000002665 ) ;
#159 = AXIS2_PLACEMENT_3D ( 'NONE', #139, #53, #4 ) ;
#160 = CARTESIAN_POINT ( 'NONE',  ( -3.340620559062109808E-30, 9.076657989747723686E-32, -9.567917553782459775E-16 ) ) ;
#161 = CARTESIAN_POINT ( 'NONE',  ( 3.194705425041467083E-13, 7.999999999999991118, 91.50000000000000000 ) ) ;
#162 = CARTESIAN_POINT ( 'NONE',  ( 6.982962677686246003E-16, -2.453312193277548858E-17, 0.1999999999999994005 ) ) ;
#163 = CARTESIAN_POINT ( 'NONE',  ( 9.077851480992146724E-14, 5.999039130647422768E-32, 26.00000000000000000 ) ) ;
#164 =( NAMED_UNIT ( * ) PLANE_ANGLE_UNIT ( ) SI_UNIT ( $, .RADIAN. ) );
#165 = PERSON_AND_ORGANIZATION ( #60, #31 ) ;
#166 = CIRCLE ( 'NONE', #23, 7.800000000000001599 ) ;
#167 = EDGE_CURVE ( 'NONE', #110, #110, #158, .T. ) ;
#168 = ADVANCED_FACE ( 'NONE', ( #41 ), #146, .F. ) ;
#169 = ORIENTED_EDGE ( 'NONE', *, *, #148, .F. ) ;
#170 = PRODUCT ( '42358', '42358', '', ( #62 ) ) ;
#171 = EDGE_LOOP ( 'NONE', ( #137 ) ) ;
#172 = DIRECTION ( 'NONE',  ( -3.491481338843133355E-15, 1.224646799147353207E-16, -1.000000000000000000 ) ) ;
#173 = PRODUCT_DEFINITION ( 'UNKNOWN', '', #127, #155 ) ;
#174 = ORIENTED_EDGE ( 'NONE', *, *, #116, .F. ) ;
#175 = CARTESIAN_POINT ( 'NONE',  ( 9.077851480992146724E-14, 7.999999999999991118, 26.00000000000000000 ) ) ;
#176 = CONICAL_SURFACE ( 'NONE', #191, 7.500000000000002665, 0.7853981633974473908 ) ;
#177 = DIRECTION ( 'NONE',  ( 3.491481338843133355E-15, -1.226656096638776648E-16, 1.000000000000000000 ) ) ;
#178 = DIRECTION ( 'NONE',  ( 3.491481338843133355E-15, -1.224646799147353207E-16, 1.000000000000000000 ) ) ;
#179 = CIRCLE ( 'NONE', #85, 8.000000000000001776 ) ;
#180 = DIRECTION ( 'NONE',  ( 3.491481338843133355E-15, -1.226656096638776648E-16, 1.000000000000000000 ) ) ;
#181 = APPROVAL_PERSON_ORGANIZATION ( #165, #141, #14 ) ;
#182 = APPROVAL_PERSON_ORGANIZATION ( #49, #125, #131 ) ;
#183 = LOCAL_TIME ( 11, 35, 16.00000000000000000, #80 ) ;
#184 = COORDINATED_UNIVERSAL_TIME_OFFSET ( 1, 0, .AHEAD. ) ;
#185 = PRODUCT_RELATED_PRODUCT_CATEGORY ( 'detail', '', ( #170 ) ) ;
#186 = PERSON_AND_ORGANIZATION ( #60, #31 ) ;
#187 = CONICAL_SURFACE ( 'NONE', #89, 8.000000000000000000, 0.7853981633974445042 ) ;
#188 = ORIENTED_EDGE ( 'NONE', *, *, #167, .T. ) ;
#189 = DIRECTION ( 'NONE',  ( 0.0000000000000000000, 1.000000000000000000, 0.0000000000000000000 ) ) ;
#190 = UNCERTAINTY_MEASURE_WITH_UNIT (LENGTH_MEASURE( 1.000000000000000082E-05 ), #39, 'distance_accuracy_value', 'NONE');
#191 = AXIS2_PLACEMENT_3D ( 'NONE', #36, #208, #189 ) ;
#192 = DIRECTION ( 'NONE',  ( 0.0000000000000000000, 1.000000000000000000, 0.0000000000000000000 ) ) ;
#193 = CC_DESIGN_APPROVAL ( #141, ( #127 ) ) ;
#194 = FACE_OUTER_BOUND ( 'NONE', #3, .T. ) ;
#195 = FACE_OUTER_BOUND ( 'NONE', #69, .T. ) ;
#196 = PLANE ( 'NONE',  #99 ) ;
#197 = FACE_BOUND ( 'NONE', #140, .T. ) ;
#198 = ADVANCED_FACE ( 'NONE', ( #76 ), #196, .F. ) ;
#199 = CARTESIAN_POINT ( 'NONE',  ( 6.982962677686246003E-16, -2.453312193277548858E-17, 0.1999999999999994005 ) ) ;
#200 = COORDINATED_UNIVERSAL_TIME_OFFSET ( 1, 0, .AHEAD. ) ;
#201 = PERSON_AND_ORGANIZATION ( #60, #31 ) ;
#202 = CC_DESIGN_PERSON_AND_ORGANIZATION_ASSIGNMENT ( #201, #135, ( #127 ) ) ;
#203 = DATE_TIME_ROLE ( 'classification_date' ) ;
#204 = APPLICATION_PROTOCOL_DEFINITION ( 'international standard', 'config_control_design', 1994, #77 ) ;
#205 = ADVANCED_FACE ( 'NONE', ( #195 ), #26, .T. ) ;
#206 = ORIENTED_EDGE ( 'NONE', *, *, #152, .T. ) ;
#207 = SECURITY_CLASSIFICATION ( '', '', #114 ) ;
#208 = DIRECTION ( 'NONE',  ( -3.491481338843133355E-15, 1.224646799147353207E-16, -1.000000000000000000 ) ) ;
#209 = ORIENTED_EDGE ( 'NONE', *, *, #12, .T. ) ;
#210 = CIRCLE ( 'NONE', #19, 8.000000000000000000 ) ;
#211 = EDGE_LOOP ( 'NONE', ( #188 ) ) ;
#212 = CARTESIAN_POINT ( 'NONE',  ( 6.982962677686211490E-16, -8.000000000000000000, 0.1999999999999984290 ) ) ;
#213 = DIRECTION ( 'NONE',  ( 3.491481338843133355E-15, -1.224646799147353207E-16, 1.000000000000000000 ) ) ;
#214 = DIRECTION ( 'NONE',  ( 3.491481338843133355E-15, -1.224646799147353207E-16, 1.000000000000000000 ) ) ;
#215 = CALENDAR_DATE ( 2021, 1, 11 ) ;
#216 = DIRECTION ( 'NONE',  ( 1.000000000000000000, 0.0000000000000000000, 0.0000000000000000000 ) ) ;
#217 = ADVANCED_FACE ( 'NONE', ( #197, #91 ), #187, .T. ) ;
#218 = DATE_AND_TIME ( #215, #183 ) ;
#219 = CALENDAR_DATE ( 2021, 1, 11 ) ;
#220 = CALENDAR_DATE ( 2021, 1, 11 ) ;
#221 = CC_DESIGN_PERSON_AND_ORGANIZATION_ASSIGNMENT ( #151, #136, ( #170 ) ) ;
#222 = DIRECTION ( 'NONE',  ( -3.491481338843133355E-15, 1.224646799147353207E-16, -1.000000000000000000 ) ) ;
#223 = CC_DESIGN_APPROVAL ( #125, ( #173 ) ) ;
ENDSEC;
END-ISO-10303-21;
