ISO-10303-21;
HEADER;
FILE_DESCRIPTION (( 'STEP AP203' ),
    '1' );
FILE_NAME ('42357.step',
    '2021-11-01T10:35:15',
    ( '' ),
    ( '' ),
    'SwSTEP 2.0',
    'SolidWorks 2019',
    '' );
FILE_SCHEMA (( 'CONFIG_CONTROL_DESIGN' ));
ENDSEC;

DATA;
#1 = CARTESIAN_POINT ( 'NONE',  ( -4.111532995768751017E-30, -4.800000000000001599, -1.177589852773225818E-15 ) ) ;
#2 = APPLICATION_CONTEXT ( 'configuration controlled 3d designs of mechanical parts and assemblies' ) ;
#3 = PERSON_AND_ORGANIZATION ( #133, #59 ) ;
#4 = APPROVAL_STATUS ( 'not_yet_approved' ) ;
#5 = AXIS2_PLACEMENT_3D ( 'NONE', #111, #198, #222 ) ;
#6 = CC_DESIGN_DATE_AND_TIME_ASSIGNMENT ( #139, #208, ( #81 ) ) ;
#7 = EDGE_LOOP ( 'NONE', ( #69 ) ) ;
#8 = PERSON_AND_ORGANIZATION ( #133, #59 ) ;
#9 = ORIENTED_EDGE ( 'NONE', *, *, #130, .T. ) ;
#10 = ADVANCED_FACE ( 'NONE', ( #146, #211 ), #117, .T. ) ;
#11 = AXIS2_PLACEMENT_3D ( 'NONE', #199, #166, #109 ) ;
#12 = CARTESIAN_POINT ( 'NONE',  ( -3.206895207363839893E-31, 1.124827421303185118E-32, -9.184912924169922105E-17 ) ) ;
#13 = DIRECTION ( 'NONE',  ( 4.275831445896958607E-31, 1.000000000000000000, 1.224646799147353207E-16 ) ) ;
#14 = ADVANCED_FACE ( 'NONE', ( #44 ), #182, .T. ) ;
#15 = DIRECTION ( 'NONE',  ( 3.491481338843133355E-15, -1.226656096638776648E-16, 1.000000000000000000 ) ) ;
#16 = DIRECTION ( 'NONE',  ( -4.275831445896958607E-31, -1.000000000000000000, -1.224646799147353207E-16 ) ) ;
#17 = CARTESIAN_POINT ( 'NONE',  ( 6.633814543801952113E-14, -2.326828918379970970E-15, 19.00000000000000000 ) ) ;
#18 = CC_DESIGN_PERSON_AND_ORGANIZATION_ASSIGNMENT ( #145, #124, ( #140 ) ) ;
#19 = VERTEX_POINT ( 'NONE', #50 ) ;
#20 = LOCAL_TIME ( 11, 35, 15.00000000000000000, #102 ) ;
#21 = PERSON_AND_ORGANIZATION_ROLE ( 'design_owner' ) ;
#22 = MANIFOLD_SOLID_BREP ( 'Corps-Déplacer/Copier1[2]', #74 ) ;
#23 =( NAMED_UNIT ( * ) PLANE_ANGLE_UNIT ( ) SI_UNIT ( $, .RADIAN. ) );
#24 = CC_DESIGN_PERSON_AND_ORGANIZATION_ASSIGNMENT ( #8, #40, ( #210 ) ) ;
#25 = DATE_TIME_ROLE ( 'classification_date' ) ;
#26 = PERSON_AND_ORGANIZATION ( #133, #59 ) ;
#27 = ORIENTED_EDGE ( 'NONE', *, *, #99, .F. ) ;
#28 = APPROVAL_DATE_TIME ( #176, #156 ) ;
#29 = CARTESIAN_POINT ( 'NONE',  ( 6.982962677686246989E-16, -2.453312193277549166E-17, 0.1999999999999994282 ) ) ;
#30 = CONICAL_SURFACE ( 'NONE', #78, 4.500000000000003553, 0.7853981633974482790 ) ;
#31 = DIRECTION ( 'NONE',  ( -4.275831445896958607E-31, -1.000000000000000000, -1.224646799147353207E-16 ) ) ;
#32 = DIRECTION ( 'NONE',  ( -3.491481338843133355E-15, 1.224646799147353207E-16, -1.000000000000000000 ) ) ;
#33 = DIRECTION ( 'NONE',  ( -3.491481338843133355E-15, 1.224646799147353207E-16, -1.000000000000000000 ) ) ;
#34 = AXIS2_PLACEMENT_3D ( 'NONE', #113, #93, #150 ) ;
#35 = PRODUCT_DEFINITION_SHAPE ( 'NONE', 'NONE',  #81 ) ;
#36 = CARTESIAN_POINT ( 'NONE',  ( 6.633814543801952113E-14, 3.749399456654638546E-32, 19.00000000000000000 ) ) ;
#37 = CC_DESIGN_SECURITY_CLASSIFICATION ( #140, ( #210 ) ) ;
#38 = ADVANCED_FACE ( 'NONE', ( #94, #147 ), #201, .T. ) ;
#39 = AXIS2_PLACEMENT_3D ( 'NONE', #95, #32, #65 ) ;
#40 = PERSON_AND_ORGANIZATION_ROLE ( 'creator' ) ;
#41 = COORDINATED_UNIVERSAL_TIME_OFFSET ( 1, 0, .AHEAD. ) ;
#42 = COORDINATED_UNIVERSAL_TIME_OFFSET ( 1, 0, .AHEAD. ) ;
#43 = LOCAL_TIME ( 11, 35, 15.00000000000000000, #42 ) ;
#44 = FACE_OUTER_BOUND ( 'NONE', #173, .T. ) ;
#45 = CARTESIAN_POINT ( 'NONE',  ( 2.496409157272840412E-13, -8.756224613903574137E-15, 71.50000000000000000 ) ) ;
#46 = CARTESIAN_POINT ( 'NONE',  ( 2.513866563967056016E-13, -8.817456953860941711E-15, 72.00000000000000000 ) ) ;
#47 = DIRECTION ( 'NONE',  ( 0.0000000000000000000, 1.000000000000000000, 0.0000000000000000000 ) ) ;
#48 = CIRCLE ( 'NONE', #11, 5.000000000000000000 ) ;
#49 = DESIGN_CONTEXT ( 'detailed design', #2, 'design' ) ;
#50 = CARTESIAN_POINT ( 'NONE',  ( 2.496409157272840412E-13, 4.999999999999995559, 71.50000000000000000 ) ) ;
#51 = AXIS2_PLACEMENT_3D ( 'NONE', #36, #152, #16 ) ;
#52 = COORDINATED_UNIVERSAL_TIME_OFFSET ( 1, 0, .AHEAD. ) ;
#53 = CARTESIAN_POINT ( 'NONE',  ( 2.513866563967056016E-13, 4.499999999999995559, 72.00000000000000000 ) ) ;
#54 = EDGE_LOOP ( 'NONE', ( #27 ) ) ;
#55 = LOCAL_TIME ( 11, 35, 15.00000000000000000, #137 ) ;
#56 = PERSON_AND_ORGANIZATION ( #133, #59 ) ;
#57 = PERSON_AND_ORGANIZATION_ROLE ( 'creator' ) ;
#58 = ORIENTED_EDGE ( 'NONE', *, *, #178, .F. ) ;
#59 = ORGANIZATION ( 'UNSPECIFIED', 'UNSPECIFIED', '' ) ;
#60 = APPROVAL_STATUS ( 'not_yet_approved' ) ;
#61 = ORIENTED_EDGE ( 'NONE', *, *, #178, .T. ) ;
#62 = FACE_OUTER_BOUND ( 'NONE', #141, .T. ) ;
#63 = DIRECTION ( 'NONE',  ( -3.491481338843133355E-15, 1.224646799147353207E-16, -1.000000000000000000 ) ) ;
#64 = CC_DESIGN_PERSON_AND_ORGANIZATION_ASSIGNMENT ( #3, #21, ( #197 ) ) ;
#65 = DIRECTION ( 'NONE',  ( 4.275831445896959482E-31, 1.000000000000000000, 1.224646799147353207E-16 ) ) ;
#66 = AXIS2_PLACEMENT_3D ( 'NONE', #221, #165, #13 ) ;
#67 = EDGE_CURVE ( 'NONE', #100, #100, #96, .T. ) ;
#68 = CALENDAR_DATE ( 2021, 1, 11 ) ;
#69 = ORIENTED_EDGE ( 'NONE', *, *, #67, .F. ) ;
#70 = ORIENTED_EDGE ( 'NONE', *, *, #67, .T. ) ;
#71 = EDGE_LOOP ( 'NONE', ( #159 ) ) ;
#72 = PERSON_AND_ORGANIZATION_ROLE ( 'design_supplier' ) ;
#73 = ORIENTED_EDGE ( 'NONE', *, *, #130, .F. ) ;
#74 = CLOSED_SHELL ( 'NONE', ( #38, #14, #10, #190 ) ) ;
#75 = CARTESIAN_POINT ( 'NONE',  ( -2.055766497884375509E-30, 4.562602451484483923E-32, -5.887949263866129092E-16 ) ) ;
#76 = DIRECTION ( 'NONE',  ( 0.0000000000000000000, 1.000000000000000000, 0.0000000000000000000 ) ) ;
#77 = FACE_OUTER_BOUND ( 'NONE', #209, .T. ) ;
#78 = AXIS2_PLACEMENT_3D ( 'NONE', #46, #33, #131 ) ;
#79 = FACE_OUTER_BOUND ( 'NONE', #142, .T. ) ;
#80 = CYLINDRICAL_SURFACE ( 'NONE', #34, 5.000000000000000888 ) ;
#81 = PRODUCT_DEFINITION ( 'UNKNOWN', '', #210, #49 ) ;
#82 = APPLICATION_CONTEXT ( 'configuration controlled 3d designs of mechanical parts and assemblies' ) ;
#83 = DIRECTION ( 'NONE',  ( 1.000000000000000000, 0.0000000000000000000, 0.0000000000000000000 ) ) ;
#84 = APPLICATION_PROTOCOL_DEFINITION ( 'international standard', 'config_control_design', 1994, #2 ) ;
#85 = MANIFOLD_SOLID_BREP ( 'Corps-Déplacer/Copier1[1]', #192 ) ;
#86 = AXIS2_PLACEMENT_3D ( 'NONE', #17, #183, #128 ) ;
#87 = PERSON_AND_ORGANIZATION ( #133, #59 ) ;
#88 = APPROVAL_DATE_TIME ( #212, #215 ) ;
#89 = APPROVAL_PERSON_ORGANIZATION ( #26, #156, #195 ) ;
#90 = SHAPE_DEFINITION_REPRESENTATION ( #35, #207 ) ;
#91 = ADVANCED_FACE ( 'NONE', ( #62, #77 ), #80, .T. ) ;
#92 = LOCAL_TIME ( 11, 35, 15.00000000000000000, #52 ) ;
#93 = DIRECTION ( 'NONE',  ( -3.491481338843133355E-15, 1.224646799147353207E-16, -1.000000000000000000 ) ) ;
#94 = FACE_OUTER_BOUND ( 'NONE', #106, .T. ) ;
#95 = CARTESIAN_POINT ( 'NONE',  ( 0.0000000000000000000, 0.0000000000000000000, 0.0000000000000000000 ) ) ;
#96 = CIRCLE ( 'NONE', #189, 4.800000000000001599 ) ;
#97 = DIRECTION ( 'NONE',  ( -3.491481338843133355E-15, 1.224646799147353207E-16, -1.000000000000000000 ) ) ;
#98 = VERTEX_POINT ( 'NONE', #101 ) ;
#99 = EDGE_CURVE ( 'NONE', #136, #136, #48, .T. ) ;
#100 = VERTEX_POINT ( 'NONE', #1 ) ;
#101 = CARTESIAN_POINT ( 'NONE',  ( 6.633814543801952113E-14, 4.999999999999995559, 19.00000000000000000 ) ) ;
#102 = COORDINATED_UNIVERSAL_TIME_OFFSET ( 1, 0, .AHEAD. ) ;
#103 = ORIENTED_EDGE ( 'NONE', *, *, #99, .T. ) ;
#104 = CC_DESIGN_PERSON_AND_ORGANIZATION_ASSIGNMENT ( #118, #57, ( #81 ) ) ;
#105 = CALENDAR_DATE ( 2021, 1, 11 ) ;
#106 = EDGE_LOOP ( 'NONE', ( #175 ) ) ;
#107 = CARTESIAN_POINT ( 'NONE',  ( 6.633814543801952113E-14, 3.749399456654638546E-32, 19.00000000000000000 ) ) ;
#108 = APPROVAL_PERSON_ORGANIZATION ( #56, #220, #194 ) ;
#109 = DIRECTION ( 'NONE',  ( -4.237045877651918877E-31, -1.000000000000000000, -1.246832498358330099E-16 ) ) ;
#110 = FACE_OUTER_BOUND ( 'NONE', #121, .T. ) ;
#111 = CARTESIAN_POINT ( 'NONE',  ( 2.513866563967056016E-13, -8.817456953860941711E-15, 72.00000000000000000 ) ) ;
#112 = CIRCLE ( 'NONE', #154, 4.999999999999998224 ) ;
#113 = CARTESIAN_POINT ( 'NONE',  ( 0.0000000000000000000, 0.0000000000000000000, 0.0000000000000000000 ) ) ;
#114 = APPLICATION_PROTOCOL_DEFINITION ( 'international standard', 'config_control_design', 1994, #82 ) ;
#115 = VERTEX_POINT ( 'NONE', #204 ) ;
#116 = CALENDAR_DATE ( 2021, 1, 11 ) ;
#117 = CONICAL_SURFACE ( 'NONE', #164, 5.000000000000000000, 0.7853981633974452814 ) ;
#118 = PERSON_AND_ORGANIZATION ( #133, #59 ) ;
#119 = APPROVAL_STATUS ( 'not_yet_approved' ) ;
#120 = CALENDAR_DATE ( 2021, 1, 11 ) ;
#121 = EDGE_LOOP ( 'NONE', ( #58 ) ) ;
#122 = AXIS2_PLACEMENT_3D ( 'NONE', #45, #63, #76 ) ;
#123 = ADVANCED_FACE ( 'NONE', ( #151 ), #181, .F. ) ;
#124 = PERSON_AND_ORGANIZATION_ROLE ( 'classification_officer' ) ;
#125 = EDGE_CURVE ( 'NONE', #115, #115, #112, .T. ) ;
#126 = DIRECTION ( 'NONE',  ( -4.237045877651918877E-31, -1.000000000000000000, -1.246832498358330099E-16 ) ) ;
#127 = AXIS2_PLACEMENT_3D ( 'NONE', #168, #135, #83 ) ;
#128 = DIRECTION ( 'NONE',  ( 0.0000000000000000000, 1.000000000000000000, 0.0000000000000000000 ) ) ;
#129 = FACE_BOUND ( 'NONE', #71, .T. ) ;
#130 = EDGE_CURVE ( 'NONE', #98, #98, #155, .T. ) ;
#131 = DIRECTION ( 'NONE',  ( 0.0000000000000000000, 1.000000000000000000, 0.0000000000000000000 ) ) ;
#132 =( GEOMETRIC_REPRESENTATION_CONTEXT ( 3 ) GLOBAL_UNCERTAINTY_ASSIGNED_CONTEXT ( ( #153 ) ) GLOBAL_UNIT_ASSIGNED_CONTEXT ( ( #186, #23, #188 ) ) REPRESENTATION_CONTEXT ( 'NONE', 'WORKASPACE' ) );
#133 = PERSON ( 'UNSPECIFIED', 'UNSPECIFIED', 'UNSPECIFIED', ('UNSPECIFIED'), ('UNSPECIFIED'), ('UNSPECIFIED') ) ;
#134 = VERTEX_POINT ( 'NONE', #53 ) ;
#135 = DIRECTION ( 'NONE',  ( 0.0000000000000000000, 0.0000000000000000000, 1.000000000000000000 ) ) ;
#136 = VERTEX_POINT ( 'NONE', #191 ) ;
#137 = COORDINATED_UNIVERSAL_TIME_OFFSET ( 1, 0, .AHEAD. ) ;
#138 = EDGE_LOOP ( 'NONE', ( #213 ) ) ;
#139 = DATE_AND_TIME ( #116, #55 ) ;
#140 = SECURITY_CLASSIFICATION ( '', '', #174 ) ;
#141 = EDGE_LOOP ( 'NONE', ( #73 ) ) ;
#142 = EDGE_LOOP ( 'NONE', ( #9 ) ) ;
#143 = DATE_AND_TIME ( #120, #20 ) ;
#144 = ADVANCED_FACE ( 'NONE', ( #79 ), #200, .F. ) ;
#145 = PERSON_AND_ORGANIZATION ( #133, #59 ) ;
#146 = FACE_BOUND ( 'NONE', #161, .T. ) ;
#147 = FACE_OUTER_BOUND ( 'NONE', #160, .T. ) ;
#148 = EDGE_CURVE ( 'NONE', #134, #134, #203, .T. ) ;
#149 = PLANE ( 'NONE',  #167 ) ;
#150 = DIRECTION ( 'NONE',  ( 4.275831445896958607E-31, 1.000000000000000000, 1.224646799147353207E-16 ) ) ;
#151 = FACE_OUTER_BOUND ( 'NONE', #138, .T. ) ;
#152 = DIRECTION ( 'NONE',  ( 3.491481338843133355E-15, -1.224646799147353207E-16, 1.000000000000000000 ) ) ;
#153 = UNCERTAINTY_MEASURE_WITH_UNIT (LENGTH_MEASURE( 1.000000000000000082E-05 ), #186, 'distance_accuracy_value', 'NONE');
#154 = AXIS2_PLACEMENT_3D ( 'NONE', #202, #97, #47 ) ;
#155 = CIRCLE ( 'NONE', #86, 4.999999999999998224 ) ;
#156 = APPROVAL ( #119, 'UNSPECIFIED' ) ;
#157 = PERSON_AND_ORGANIZATION ( #133, #59 ) ;
#158 = CALENDAR_DATE ( 2021, 1, 11 ) ;
#159 = ORIENTED_EDGE ( 'NONE', *, *, #148, .T. ) ;
#160 = EDGE_LOOP ( 'NONE', ( #103 ) ) ;
#161 = EDGE_LOOP ( 'NONE', ( #70 ) ) ;
#162 = APPROVAL_DATE_TIME ( #143, #220 ) ;
#163 = FACE_OUTER_BOUND ( 'NONE', #7, .T. ) ;
#164 = AXIS2_PLACEMENT_3D ( 'NONE', #29, #217, #126 ) ;
#165 = DIRECTION ( 'NONE',  ( -3.491481338843133355E-15, 1.224646799147353207E-16, -1.000000000000000000 ) ) ;
#166 = DIRECTION ( 'NONE',  ( 3.491481338843133355E-15, -1.226656096638776648E-16, 1.000000000000000000 ) ) ;
#167 = AXIS2_PLACEMENT_3D ( 'NONE', #12, #218, #219 ) ;
#168 = CARTESIAN_POINT ( 'NONE',  ( 0.0000000000000000000, 0.0000000000000000000, 0.0000000000000000000 ) ) ;
#169 = PRODUCT_RELATED_PRODUCT_CATEGORY ( 'detail', '', ( #197 ) ) ;
#170 = CC_DESIGN_APPROVAL ( #156, ( #140 ) ) ;
#171 = MECHANICAL_CONTEXT ( 'NONE', #82, 'mechanical' ) ;
#172 = AXIS2_PLACEMENT_3D ( 'NONE', #107, #179, #31 ) ;
#173 = EDGE_LOOP ( 'NONE', ( #214 ) ) ;
#174 = SECURITY_CLASSIFICATION_LEVEL ( 'unclassified' ) ;
#175 = ORIENTED_EDGE ( 'NONE', *, *, #125, .T. ) ;
#176 = DATE_AND_TIME ( #105, #216 ) ;
#177 = CIRCLE ( 'NONE', #122, 5.000000000000004441 ) ;
#178 = EDGE_CURVE ( 'NONE', #19, #19, #177, .T. ) ;
#179 = DIRECTION ( 'NONE',  ( 3.491481338843133355E-15, -1.224646799147353207E-16, 1.000000000000000000 ) ) ;
#180 = APPROVAL_PERSON_ORGANIZATION ( #157, #215, #205 ) ;
#181 = PLANE ( 'NONE',  #66 ) ;
#182 = PLANE ( 'NONE',  #172 ) ;
#183 = DIRECTION ( 'NONE',  ( -3.491481338843133355E-15, 1.224646799147353207E-16, -1.000000000000000000 ) ) ;
#184 = CC_DESIGN_APPROVAL ( #220, ( #210 ) ) ;
#185 = DIRECTION ( 'NONE',  ( -4.282846870592447371E-31, -1.000000000000000000, -1.226656096638776401E-16 ) ) ;
#186 =( LENGTH_UNIT ( ) NAMED_UNIT ( * ) SI_UNIT ( .MILLI., .METRE. ) );
#187 = ADVANCED_FACE ( 'NONE', ( #110, #129 ), #30, .T. ) ;
#188 =( NAMED_UNIT ( * ) SI_UNIT ( $, .STERADIAN. ) SOLID_ANGLE_UNIT ( ) );
#189 = AXIS2_PLACEMENT_3D ( 'NONE', #75, #15, #185 ) ;
#190 = ADVANCED_FACE ( 'NONE', ( #163 ), #149, .F. ) ;
#191 = CARTESIAN_POINT ( 'NONE',  ( 6.982962677686226281E-16, -5.000000000000000000, 0.1999999999999988176 ) ) ;
#192 = CLOSED_SHELL ( 'NONE', ( #144, #91, #187, #123 ) ) ;
#193 = DATE_AND_TIME ( #158, #43 ) ;
#194 = APPROVAL_ROLE ( '' ) ;
#195 = APPROVAL_ROLE ( '' ) ;
#196 = CC_DESIGN_DATE_AND_TIME_ASSIGNMENT ( #193, #25, ( #140 ) ) ;
#197 = PRODUCT ( '42357', '42357', '', ( #171 ) ) ;
#198 = DIRECTION ( 'NONE',  ( -3.491481338843133355E-15, 1.224646799147353207E-16, -1.000000000000000000 ) ) ;
#199 = CARTESIAN_POINT ( 'NONE',  ( 6.982962677686246989E-16, -2.453312193277549166E-17, 0.1999999999999994282 ) ) ;
#200 = PLANE ( 'NONE',  #51 ) ;
#201 = CYLINDRICAL_SURFACE ( 'NONE', #39, 4.999999999999997335 ) ;
#202 = CARTESIAN_POINT ( 'NONE',  ( 6.633814543801952113E-14, -2.326828918379970970E-15, 19.00000000000000000 ) ) ;
#203 = CIRCLE ( 'NONE', #5, 4.500000000000003553 ) ;
#204 = CARTESIAN_POINT ( 'NONE',  ( 6.633814543801952113E-14, 4.999999999999995559, 19.00000000000000000 ) ) ;
#205 = APPROVAL_ROLE ( '' ) ;
#206 = CC_DESIGN_PERSON_AND_ORGANIZATION_ASSIGNMENT ( #87, #72, ( #210 ) ) ;
#207 = ADVANCED_BREP_SHAPE_REPRESENTATION ( '42357', ( #85, #22, #127 ), #132 ) ;
#208 = DATE_TIME_ROLE ( 'creation_date' ) ;
#209 = EDGE_LOOP ( 'NONE', ( #61 ) ) ;
#210 = PRODUCT_DEFINITION_FORMATION_WITH_SPECIFIED_SOURCE ( 'ANY', '', #197, .NOT_KNOWN. ) ;
#211 = FACE_OUTER_BOUND ( 'NONE', #54, .T. ) ;
#212 = DATE_AND_TIME ( #68, #92 ) ;
#213 = ORIENTED_EDGE ( 'NONE', *, *, #148, .F. ) ;
#214 = ORIENTED_EDGE ( 'NONE', *, *, #125, .F. ) ;
#215 = APPROVAL ( #4, 'UNSPECIFIED' ) ;
#216 = LOCAL_TIME ( 11, 35, 15.00000000000000000, #41 ) ;
#217 = DIRECTION ( 'NONE',  ( 3.491481338843133355E-15, -1.226656096638776648E-16, 1.000000000000000000 ) ) ;
#218 = DIRECTION ( 'NONE',  ( 3.491481338843133355E-15, -1.224646799147353207E-16, 1.000000000000000000 ) ) ;
#219 = DIRECTION ( 'NONE',  ( -4.275831445896958607E-31, -1.000000000000000000, -1.224646799147353207E-16 ) ) ;
#220 = APPROVAL ( #60, 'UNSPECIFIED' ) ;
#221 = CARTESIAN_POINT ( 'NONE',  ( 2.513866563967056016E-13, 3.374459510989170312E-32, 72.00000000000000000 ) ) ;
#222 = DIRECTION ( 'NONE',  ( 0.0000000000000000000, 1.000000000000000000, 0.0000000000000000000 ) ) ;
#223 = CC_DESIGN_APPROVAL ( #215, ( #81 ) ) ;
ENDSEC;
END-ISO-10303-21;
