ISO-10303-21;
HEADER;
FILE_DESCRIPTION (( 'STEP AP203' ),
    '1' );
FILE_NAME ('423533.STEP',
    '2022-12-15T09:12:56',
    ( '' ),
    ( '' ),
    'SwSTEP 2.0',
    'SolidWorks 2019',
    '' );
FILE_SCHEMA (( 'CONFIG_CONTROL_DESIGN' ));
ENDSEC;

DATA;
#1 = AXIS2_PLACEMENT_3D ( 'NONE', #193, #54, #130 ) ;
#2 = ORIENTED_EDGE ( 'NONE', *, *, #229, .T. ) ;
#3 = ORIENTED_EDGE ( 'NONE', *, *, #158, .T. ) ;
#4 = AXIS2_PLACEMENT_3D ( 'NONE', #23, #20, #27 ) ;
#5 = EDGE_CURVE ( 'NONE', #257, #246, #122, .T. ) ;
#6 = EDGE_CURVE ( 'NONE', #74, #257, #233, .T. ) ;
#7 = VERTEX_POINT ( 'NONE', #296 ) ;
#8 = DIRECTION ( 'NONE',  ( 1.000000000000000000, 0.000000000000000000, 0.000000000000000000 ) ) ;
#9 = ORIENTED_EDGE ( 'NONE', *, *, #158, .F. ) ;
#10 = APPROVAL_STATUS ( 'not_yet_approved' ) ;
#11 = VECTOR ( 'NONE', #271, 1000.000000000000000 ) ;
#12 = DESIGN_CONTEXT ( 'detailed design', #60, 'design' ) ;
#13 = CARTESIAN_POINT ( 'NONE',  ( 5.000000000000000000, 0.000000000000000000, 0.000000000000000000 ) ) ;
#14 = COORDINATED_UNIVERSAL_TIME_OFFSET ( 1, 0, .AHEAD. ) ;
#15 = CARTESIAN_POINT ( 'NONE',  ( -4.901260626809452070, 6.002313138409144969E-16, 21.89999999999999858 ) ) ;
#16 = PLANE ( 'NONE',  #263 ) ;
#17 = AXIS2_PLACEMENT_3D ( 'NONE', #258, #153, #156 ) ;
#18 = LINE ( 'NONE', #133, #317 ) ;
#19 = MECHANICAL_CONTEXT ( 'NONE', #310, 'mechanical' ) ;
#20 = DIRECTION ( 'NONE',  ( -0.000000000000000000, -0.000000000000000000, 1.000000000000000000 ) ) ;
#21 = CARTESIAN_POINT ( 'NONE',  ( -3.999999999999996447, 4.898587196589409870E-16, 21.89999999999999858 ) ) ;
#22 = APPLICATION_PROTOCOL_DEFINITION ( 'international standard', 'config_control_design', 1994, #60 ) ;
#23 = CARTESIAN_POINT ( 'NONE',  ( 0.000000000000000000, 0.000000000000000000, 21.89999999999999858 ) ) ;
#24 = AXIS2_PLACEMENT_3D ( 'NONE', #55, #355, #166 ) ;
#25 = FACE_OUTER_BOUND ( 'NONE', #119, .T. ) ;
#26 = DIRECTION ( 'NONE',  ( 0.000000000000000000, -0.000000000000000000, 1.000000000000000000 ) ) ;
#27 = DIRECTION ( 'NONE',  ( 1.000000000000000000, 0.000000000000000000, 0.000000000000000000 ) ) ;
#28 = DIRECTION ( 'NONE',  ( -0.000000000000000000, -0.000000000000000000, 1.000000000000000000 ) ) ;
#29 = EDGE_CURVE ( 'NONE', #145, #146, #80, .T. ) ;
#30 = AXIS2_PLACEMENT_3D ( 'NONE', #226, #129, #300 ) ;
#31 = EDGE_CURVE ( 'NONE', #246, #234, #264, .T. ) ;
#32 = ORIENTED_EDGE ( 'NONE', *, *, #352, .T. ) ;
#33 = AXIS2_PLACEMENT_3D ( 'NONE', #197, #56, #140 ) ;
#34 = ADVANCED_FACE ( 'NONE', ( #212 ), #180, .T. ) ;
#35 = PRODUCT_DEFINITION ( 'UNKNOWN', '', #73, #12 ) ;
#36 = VERTEX_POINT ( 'NONE', #265 ) ;
#37 = CARTESIAN_POINT ( 'NONE',  ( 0.000000000000000000, 0.000000000000000000, 69.70000000000000284 ) ) ;
#38 = APPROVAL_ROLE ( '' ) ;
#39 = FACE_OUTER_BOUND ( 'NONE', #333, .T. ) ;
#40 =( GEOMETRIC_REPRESENTATION_CONTEXT ( 3 ) GLOBAL_UNCERTAINTY_ASSIGNED_CONTEXT ( ( #286 ) ) GLOBAL_UNIT_ASSIGNED_CONTEXT ( ( #84, #110, #191 ) ) REPRESENTATION_CONTEXT ( 'NONE', 'WORKASPACE' ) );
#41 = COORDINATED_UNIVERSAL_TIME_OFFSET ( 1, 0, .AHEAD. ) ;
#42 = ORIENTED_EDGE ( 'NONE', *, *, #165, .T. ) ;
#43 = DATE_TIME_ROLE ( 'classification_date' ) ;
#44 = ORIENTED_EDGE ( 'NONE', *, *, #325, .T. ) ;
#45 = PERSON_AND_ORGANIZATION ( #95, #292 ) ;
#46 = EDGE_CURVE ( 'NONE', #74, #312, #149, .T. ) ;
#47 = APPROVAL ( #107, 'UNSPECIFIED' ) ;
#48 = ORIENTED_EDGE ( 'NONE', *, *, #203, .T. ) ;
#49 = DIRECTION ( 'NONE',  ( 1.000000000000000000, 0.000000000000000000, 0.000000000000000000 ) ) ;
#50 = APPLICATION_PROTOCOL_DEFINITION ( 'international standard', 'config_control_design', 1994, #310 ) ;
#51 = AXIS2_PLACEMENT_3D ( 'NONE', #322, #194, #223 ) ;
#52 = DIRECTION ( 'NONE',  ( 0.000000000000000000, 0.000000000000000000, -1.000000000000000000 ) ) ;
#53 = PLANE ( 'NONE',  #338 ) ;
#54 = DIRECTION ( 'NONE',  ( -0.000000000000000000, -0.000000000000000000, 1.000000000000000000 ) ) ;
#55 = CARTESIAN_POINT ( 'NONE',  ( 0.000000000000000000, 0.000000000000000000, 0.000000000000000000 ) ) ;
#56 = DIRECTION ( 'NONE',  ( -0.000000000000000000, -0.000000000000000000, 1.000000000000000000 ) ) ;
#57 = CIRCLE ( 'NONE', #341, 5.000000000000000000 ) ;
#58 = CARTESIAN_POINT ( 'NONE',  ( 0.000000000000000000, 0.000000000000000000, 22.64999999999999858 ) ) ;
#59 = ADVANCED_FACE ( 'NONE', ( #39 ), #69, .T. ) ;
#60 = APPLICATION_CONTEXT ( 'configuration controlled 3d designs of mechanical parts and assemblies' ) ;
#61 = DIRECTION ( 'NONE',  ( 1.000000000000000000, 0.000000000000000000, 0.000000000000000000 ) ) ;
#62 = AXIS2_PLACEMENT_3D ( 'NONE', #111, #139, #276 ) ;
#63 = ORIENTED_EDGE ( 'NONE', *, *, #46, .F. ) ;
#64 = CIRCLE ( 'NONE', #33, 5.000000000000000000 ) ;
#65 = CC_DESIGN_DATE_AND_TIME_ASSIGNMENT ( #294, #43, ( #261 ) ) ;
#66 = VERTEX_POINT ( 'NONE', #315 ) ;
#67 = ORIENTED_EDGE ( 'NONE', *, *, #160, .T. ) ;
#68 = CARTESIAN_POINT ( 'NONE',  ( 0.000000000000000000, 0.000000000000000000, 0.000000000000000000 ) ) ;
#69 = CONICAL_SURFACE ( 'NONE', #88, 5.000000000000000000, 0.7853981633974526089 ) ;
#70 = PRODUCT_RELATED_PRODUCT_CATEGORY ( 'detail', '', ( #169 ) ) ;
#71 = DIRECTION ( 'NONE',  ( -0.000000000000000000, -0.000000000000000000, 1.000000000000000000 ) ) ;
#72 = ORIENTED_EDGE ( 'NONE', *, *, #280, .T. ) ;
#73 = PRODUCT_DEFINITION_FORMATION_WITH_SPECIFIED_SOURCE ( 'ANY', '', #169, .NOT_KNOWN. ) ;
#74 = VERTEX_POINT ( 'NONE', #126 ) ;
#75 = CC_DESIGN_DATE_AND_TIME_ASSIGNMENT ( #316, #93, ( #35 ) ) ;
#76 = CARTESIAN_POINT ( 'NONE',  ( 0.000000000000000000, 0.000000000000000000, 69.70000000000000284 ) ) ;
#77 = CYLINDRICAL_SURFACE ( 'NONE', #281, 3.999999999999998224 ) ;
#78 = CARTESIAN_POINT ( 'NONE',  ( 0.000000000000000000, 0.000000000000000000, 70.00000000000000000 ) ) ;
#79 = CYLINDRICAL_SURFACE ( 'NONE', #242, 5.000000000000000000 ) ;
#80 = CIRCLE ( 'NONE', #17, 3.999999999999996447 ) ;
#81 = DIRECTION ( 'NONE',  ( -0.000000000000000000, -0.000000000000000000, 1.000000000000000000 ) ) ;
#82 = CARTESIAN_POINT ( 'NONE',  ( 0.000000000000000000, 0.000000000000000000, 21.89999999999999858 ) ) ;
#83 = LOCAL_TIME ( 10, 12, 56.00000000000000000, #157 ) ;
#84 =( LENGTH_UNIT ( ) NAMED_UNIT ( * ) SI_UNIT ( .MILLI., .METRE. ) );
#85 = ORIENTED_EDGE ( 'NONE', *, *, #203, .F. ) ;
#86 = ADVANCED_FACE ( 'NONE', ( #151 ), #16, .F. ) ;
#87 = EDGE_LOOP ( 'NONE', ( #72, #290 ) ) ;
#88 = AXIS2_PLACEMENT_3D ( 'NONE', #76, #96, #267 ) ;
#89 = EDGE_LOOP ( 'NONE', ( #2, #318 ) ) ;
#90 = ORIENTED_EDGE ( 'NONE', *, *, #199, .F. ) ;
#91 = ADVANCED_FACE ( 'NONE', ( #243 ), #239, .T. ) ;
#92 = EDGE_LOOP ( 'NONE', ( #42, #204, #85, #311 ) ) ;
#93 = DATE_TIME_ROLE ( 'creation_date' ) ;
#94 = ORIENTED_EDGE ( 'NONE', *, *, #142, .T. ) ;
#95 = PERSON ( 'UNSPECIFIED', 'UNSPECIFIED', 'UNSPECIFIED', ('UNSPECIFIED'), ('UNSPECIFIED'), ('UNSPECIFIED') ) ;
#96 = DIRECTION ( 'NONE',  ( 0.000000000000000000, 0.000000000000000000, -1.000000000000000000 ) ) ;
#97 = EDGE_CURVE ( 'NONE', #234, #66, #308, .T. ) ;
#98 = CIRCLE ( 'NONE', #24, 4.000000000000000000 ) ;
#99 = DIRECTION ( 'NONE',  ( -0.000000000000000000, -0.000000000000000000, 1.000000000000000000 ) ) ;
#100 = PERSON_AND_ORGANIZATION_ROLE ( 'creator' ) ;
#101 = CARTESIAN_POINT ( 'NONE',  ( 0.000000000000000000, 0.000000000000000000, 0.000000000000000000 ) ) ;
#102 = CARTESIAN_POINT ( 'NONE',  ( 0.000000000000000000, 0.000000000000000000, 0.000000000000000000 ) ) ;
#103 = LINE ( 'NONE', #278, #214 ) ;
#104 = APPROVAL_PERSON_ORGANIZATION ( #266, #331, #38 ) ;
#105 = PLANE ( 'NONE',  #227 ) ;
#106 = AXIS2_PLACEMENT_3D ( 'NONE', #164, #248, #168 ) ;
#107 = APPROVAL_STATUS ( 'not_yet_approved' ) ;
#108 = DIRECTION ( 'NONE',  ( 1.000000000000000000, 0.000000000000000000, 0.000000000000000000 ) ) ;
#109 = CC_DESIGN_PERSON_AND_ORGANIZATION_ASSIGNMENT ( #260, #211, ( #261 ) ) ;
#110 =( NAMED_UNIT ( * ) PLANE_ANGLE_UNIT ( ) SI_UNIT ( $, .RADIAN. ) );
#111 = CARTESIAN_POINT ( 'NONE',  ( 0.000000000000000000, 0.000000000000000000, 70.00000000000000000 ) ) ;
#112 = VECTOR ( 'NONE', #343, 999.9999999999998863 ) ;
#113 = DATE_AND_TIME ( #330, #176 ) ;
#114 = EDGE_LOOP ( 'NONE', ( #141, #120 ) ) ;
#115 = ADVANCED_FACE ( 'NONE', ( #237 ), #123, .T. ) ;
#116 = ORIENTED_EDGE ( 'NONE', *, *, #97, .T. ) ;
#117 = CONICAL_SURFACE ( 'NONE', #4, 4.901260626809452070, 0.1308996938995765358 ) ;
#118 = VECTOR ( 'NONE', #324, 1000.000000000000000 ) ;
#119 = EDGE_LOOP ( 'NONE', ( #282, #256, #170, #262 ) ) ;
#120 = ORIENTED_EDGE ( 'NONE', *, *, #6, .F. ) ;
#121 = PERSON_AND_ORGANIZATION ( #95, #292 ) ;
#122 = LINE ( 'NONE', #293, #192 ) ;
#123 = CONICAL_SURFACE ( 'NONE', #295, 5.000000000000000000, 0.7853981633974526089 ) ;
#124 = PERSON_AND_ORGANIZATION_ROLE ( 'creator' ) ;
#125 = DIRECTION ( 'NONE',  ( 0.1305261922200534330, 0.000000000000000000, 0.9914448613738102711 ) ) ;
#126 = CARTESIAN_POINT ( 'NONE',  ( -4.901260626809452070, 6.062773567072956118E-16, 21.89999999999999858 ) ) ;
#127 = CC_DESIGN_SECURITY_CLASSIFICATION ( #261, ( #73 ) ) ;
#128 = DIRECTION ( 'NONE',  ( -0.000000000000000000, -0.000000000000000000, 1.000000000000000000 ) ) ;
#129 = DIRECTION ( 'NONE',  ( 0.000000000000000000, 0.000000000000000000, 1.000000000000000000 ) ) ;
#130 = DIRECTION ( 'NONE',  ( 1.000000000000000000, 0.000000000000000000, 0.000000000000000000 ) ) ;
#131 = CARTESIAN_POINT ( 'NONE',  ( 4.901260626809452070, 0.000000000000000000, 21.89999999999999858 ) ) ;
#132 = EDGE_CURVE ( 'NONE', #7, #36, #335, .T. ) ;
#133 = CARTESIAN_POINT ( 'NONE',  ( 3.999999999999998224, 0.000000000000000000, 0.000000000000000000 ) ) ;
#134 = PERSON_AND_ORGANIZATION ( #95, #292 ) ;
#135 = APPROVAL_PERSON_ORGANIZATION ( #134, #327, #298 ) ;
#136 = FACE_OUTER_BOUND ( 'NONE', #342, .T. ) ;
#137 = EDGE_CURVE ( 'NONE', #202, #182, #144, .T. ) ;
#138 = AXIS2_PLACEMENT_3D ( 'NONE', #68, #99, #217 ) ;
#139 = DIRECTION ( 'NONE',  ( -0.000000000000000000, -0.000000000000000000, 1.000000000000000000 ) ) ;
#140 = DIRECTION ( 'NONE',  ( 1.000000000000000000, 0.000000000000000000, 0.000000000000000000 ) ) ;
#141 = ORIENTED_EDGE ( 'NONE', *, *, #165, .F. ) ;
#142 = EDGE_CURVE ( 'NONE', #182, #66, #269, .T. ) ;
#143 = PRODUCT_DEFINITION_SHAPE ( 'NONE', 'NONE',  #35 ) ;
#144 = CIRCLE ( 'NONE', #154, 4.699999999999988631 ) ;
#145 = VERTEX_POINT ( 'NONE', #21 ) ;
#146 = VERTEX_POINT ( 'NONE', #301 ) ;
#147 = ADVANCED_FACE ( 'NONE', ( #220 ), #105, .F. ) ;
#148 = ORIENTED_EDGE ( 'NONE', *, *, #320, .F. ) ;
#149 = LINE ( 'NONE', #15, #112 ) ;
#150 = SECURITY_CLASSIFICATION_LEVEL ( 'unclassified' ) ;
#151 = FACE_OUTER_BOUND ( 'NONE', #309, .T. ) ;
#152 = APPROVAL_STATUS ( 'not_yet_approved' ) ;
#153 = DIRECTION ( 'NONE',  ( -0.000000000000000000, -0.000000000000000000, 1.000000000000000000 ) ) ;
#154 = AXIS2_PLACEMENT_3D ( 'NONE', #78, #81, #350 ) ;
#155 = DIRECTION ( 'NONE',  ( -0.000000000000000000, -0.000000000000000000, 1.000000000000000000 ) ) ;
#156 = DIRECTION ( 'NONE',  ( 1.000000000000000000, 0.000000000000000000, 0.000000000000000000 ) ) ;
#157 = COORDINATED_UNIVERSAL_TIME_OFFSET ( 1, 0, .AHEAD. ) ;
#158 = EDGE_CURVE ( 'NONE', #202, #234, #225, .T. ) ;
#159 = CARTESIAN_POINT ( 'NONE',  ( 0.000000000000000000, 0.000000000000000000, 69.70000000000000284 ) ) ;
#160 = EDGE_CURVE ( 'NONE', #7, #146, #18, .T. ) ;
#161 = CIRCLE ( 'NONE', #51, 5.000000000000000000 ) ;
#162 = DIRECTION ( 'NONE',  ( -1.000000000000000000, 0.000000000000000000, -0.000000000000000000 ) ) ;
#163 = DIRECTION ( 'NONE',  ( -0.000000000000000000, -0.000000000000000000, 1.000000000000000000 ) ) ;
#164 = CARTESIAN_POINT ( 'NONE',  ( 0.000000000000000000, 0.000000000000000000, 21.89999999999999858 ) ) ;
#165 = EDGE_CURVE ( 'NONE', #257, #74, #167, .T. ) ;
#166 = DIRECTION ( 'NONE',  ( 1.000000000000000000, 0.000000000000000000, 0.000000000000000000 ) ) ;
#167 = CIRCLE ( 'NONE', #1, 4.901260626809452070 ) ;
#168 = DIRECTION ( 'NONE',  ( 1.000000000000000000, 0.000000000000000000, 0.000000000000000000 ) ) ;
#169 = PRODUCT ( '423533', '423533', '', ( #19 ) ) ;
#170 = ORIENTED_EDGE ( 'NONE', *, *, #229, .F. ) ;
#171 = EDGE_LOOP ( 'NONE', ( #205, #3, #116, #337 ) ) ;
#172 = AXIS2_PLACEMENT_3D ( 'NONE', #241, #155, #346 ) ;
#173 = ORIENTED_EDGE ( 'NONE', *, *, #259, .T. ) ;
#174 = ORIENTED_EDGE ( 'NONE', *, *, #132, .F. ) ;
#175 = CC_DESIGN_PERSON_AND_ORGANIZATION_ASSIGNMENT ( #45, #124, ( #35 ) ) ;
#176 = LOCAL_TIME ( 10, 12, 56.00000000000000000, #253 ) ;
#177 = ORIENTED_EDGE ( 'NONE', *, *, #199, .T. ) ;
#178 = CLOSED_SHELL ( 'NONE', ( #115, #34, #277, #188, #86, #91, #283, #244, #336, #59, #147 ) ) ;
#179 = DIRECTION ( 'NONE',  ( 1.000000000000000000, 0.000000000000000000, 0.000000000000000000 ) ) ;
#180 = CYLINDRICAL_SURFACE ( 'NONE', #172, 5.000000000000000000 ) ;
#181 = VECTOR ( 'NONE', #228, 1000.000000000000000 ) ;
#182 = VERTEX_POINT ( 'NONE', #348 ) ;
#183 = COORDINATED_UNIVERSAL_TIME_OFFSET ( 1, 0, .AHEAD. ) ;
#184 = EDGE_LOOP ( 'NONE', ( #48, #44, #313, #235 ) ) ;
#185 = AXIS2_PLACEMENT_3D ( 'NONE', #247, #163, #319 ) ;
#186 = CARTESIAN_POINT ( 'NONE',  ( 0.000000000000000000, 0.000000000000000000, 21.89999999999999858 ) ) ;
#187 = PERSON_AND_ORGANIZATION ( #95, #292 ) ;
#188 = ADVANCED_FACE ( 'NONE', ( #25 ), #77, .T. ) ;
#189 = DIRECTION ( 'NONE',  ( 0.000000000000000000, 0.000000000000000000, -1.000000000000000000 ) ) ;
#190 = CARTESIAN_POINT ( 'NONE',  ( 5.000000000000000000, 6.123233995736766282E-16, 69.70000000000000284 ) ) ;
#191 =( NAMED_UNIT ( * ) SI_UNIT ( $, .STERADIAN. ) SOLID_ANGLE_UNIT ( ) );
#192 = VECTOR ( 'NONE', #125, 999.9999999999998863 ) ;
#193 = CARTESIAN_POINT ( 'NONE',  ( 0.000000000000000000, 0.000000000000000000, 21.89999999999999858 ) ) ;
#194 = DIRECTION ( 'NONE',  ( -0.000000000000000000, -0.000000000000000000, 1.000000000000000000 ) ) ;
#195 = FACE_BOUND ( 'NONE', #89, .T. ) ;
#196 = LOCAL_TIME ( 10, 12, 56.00000000000000000, #41 ) ;
#197 = CARTESIAN_POINT ( 'NONE',  ( 0.000000000000000000, 0.000000000000000000, 22.64999999999999858 ) ) ;
#198 = LINE ( 'NONE', #351, #181 ) ;
#199 = EDGE_CURVE ( 'NONE', #312, #246, #57, .T. ) ;
#200 = CC_DESIGN_PERSON_AND_ORGANIZATION_ASSIGNMENT ( #121, #100, ( #73 ) ) ;
#201 = APPROVAL_DATE_TIME ( #113, #47 ) ;
#202 = VERTEX_POINT ( 'NONE', #328 ) ;
#203 = EDGE_CURVE ( 'NONE', #246, #312, #64, .T. ) ;
#204 = ORIENTED_EDGE ( 'NONE', *, *, #46, .T. ) ;
#205 = ORIENTED_EDGE ( 'NONE', *, *, #137, .F. ) ;
#206 = ORIENTED_EDGE ( 'NONE', *, *, #280, .F. ) ;
#207 = PERSON_AND_ORGANIZATION ( #95, #292 ) ;
#208 = CC_DESIGN_PERSON_AND_ORGANIZATION_ASSIGNMENT ( #222, #272, ( #169 ) ) ;
#209 = CONICAL_SURFACE ( 'NONE', #323, 4.901260626809452070, 0.1308996938995765358 ) ;
#210 = DIRECTION ( 'NONE',  ( 1.000000000000000000, 0.000000000000000000, 0.000000000000000000 ) ) ;
#211 = PERSON_AND_ORGANIZATION_ROLE ( 'classification_officer' ) ;
#212 = FACE_OUTER_BOUND ( 'NONE', #184, .T. ) ;
#213 = CALENDAR_DATE ( 2022, 15, 12 ) ;
#214 = VECTOR ( 'NONE', #28, 1000.000000000000000 ) ;
#215 = ORIENTED_EDGE ( 'NONE', *, *, #259, .F. ) ;
#216 = CALENDAR_DATE ( 2022, 15, 12 ) ;
#217 = DIRECTION ( 'NONE',  ( 1.000000000000000000, 0.000000000000000000, 0.000000000000000000 ) ) ;
#218 = CALENDAR_DATE ( 2022, 15, 12 ) ;
#219 = DIRECTION ( 'NONE',  ( 0.000000000000000000, -0.000000000000000000, 1.000000000000000000 ) ) ;
#220 = FACE_OUTER_BOUND ( 'NONE', #87, .T. ) ;
#221 = CIRCLE ( 'NONE', #62, 4.699999999999988631 ) ;
#222 = PERSON_AND_ORGANIZATION ( #95, #292 ) ;
#223 = DIRECTION ( 'NONE',  ( 1.000000000000000000, 0.000000000000000000, 0.000000000000000000 ) ) ;
#224 = CC_DESIGN_PERSON_AND_ORGANIZATION_ASSIGNMENT ( #207, #291, ( #73 ) ) ;
#225 = LINE ( 'NONE', #190, #11 ) ;
#226 = CARTESIAN_POINT ( 'NONE',  ( 0.000000000000000000, 0.000000000000000000, 0.000000000000000000 ) ) ;
#227 = AXIS2_PLACEMENT_3D ( 'NONE', #274, #52, #162 ) ;
#228 = DIRECTION ( 'NONE',  ( -0.000000000000000000, -0.000000000000000000, 1.000000000000000000 ) ) ;
#229 = EDGE_CURVE ( 'NONE', #146, #145, #268, .T. ) ;
#230 = FACE_OUTER_BOUND ( 'NONE', #114, .T. ) ;
#231 = EDGE_LOOP ( 'NONE', ( #279, #177, #285, #215 ) ) ;
#232 = CC_DESIGN_APPROVAL ( #327, ( #35 ) ) ;
#233 = CIRCLE ( 'NONE', #252, 4.901260626809452070 ) ;
#234 = VERTEX_POINT ( 'NONE', #329 ) ;
#235 = ORIENTED_EDGE ( 'NONE', *, *, #31, .F. ) ;
#236 = CC_DESIGN_APPROVAL ( #331, ( #73 ) ) ;
#237 = FACE_OUTER_BOUND ( 'NONE', #171, .T. ) ;
#238 = AXIS2_PLACEMENT_3D ( 'NONE', #37, #128, #179 ) ;
#239 = CYLINDRICAL_SURFACE ( 'NONE', #138, 3.999999999999998224 ) ;
#240 = CALENDAR_DATE ( 2022, 15, 12 ) ;
#241 = CARTESIAN_POINT ( 'NONE',  ( 0.000000000000000000, 0.000000000000000000, 0.000000000000000000 ) ) ;
#242 = AXIS2_PLACEMENT_3D ( 'NONE', #254, #304, #61 ) ;
#243 = FACE_OUTER_BOUND ( 'NONE', #340, .T. ) ;
#244 = ADVANCED_FACE ( 'NONE', ( #136 ), #209, .T. ) ;
#245 = DATE_AND_TIME ( #218, #345 ) ;
#246 = VERTEX_POINT ( 'NONE', #251 ) ;
#247 = CARTESIAN_POINT ( 'NONE',  ( 0.000000000000000000, 0.000000000000000000, 0.000000000000000000 ) ) ;
#248 = DIRECTION ( 'NONE',  ( -0.000000000000000000, -0.000000000000000000, 1.000000000000000000 ) ) ;
#249 = CARTESIAN_POINT ( 'NONE',  ( -5.000000000000000000, 0.000000000000000000, 69.70000000000000284 ) ) ;
#250 = ADVANCED_BREP_SHAPE_REPRESENTATION ( '423533', ( #332, #30 ), #40 ) ;
#251 = CARTESIAN_POINT ( 'NONE',  ( 5.000000000000000000, 0.000000000000000000, 22.64999999999999858 ) ) ;
#252 = AXIS2_PLACEMENT_3D ( 'NONE', #186, #71, #210 ) ;
#253 = COORDINATED_UNIVERSAL_TIME_OFFSET ( 1, 0, .AHEAD. ) ;
#254 = CARTESIAN_POINT ( 'NONE',  ( 0.000000000000000000, 0.000000000000000000, 0.000000000000000000 ) ) ;
#255 = ORIENTED_EDGE ( 'NONE', *, *, #6, .T. ) ;
#256 = ORIENTED_EDGE ( 'NONE', *, *, #320, .T. ) ;
#257 = VERTEX_POINT ( 'NONE', #131 ) ;
#258 = CARTESIAN_POINT ( 'NONE',  ( 0.000000000000000000, 0.000000000000000000, 21.89999999999999858 ) ) ;
#259 = EDGE_CURVE ( 'NONE', #66, #234, #161, .T. ) ;
#260 = PERSON_AND_ORGANIZATION ( #95, #292 ) ;
#261 = SECURITY_CLASSIFICATION ( '', '', #150 ) ;
#262 = ORIENTED_EDGE ( 'NONE', *, *, #160, .F. ) ;
#263 = AXIS2_PLACEMENT_3D ( 'NONE', #101, #219, #8 ) ;
#264 = LINE ( 'NONE', #13, #353 ) ;
#265 = CARTESIAN_POINT ( 'NONE',  ( -4.000000000000000000, 4.898587196589412829E-16, 0.000000000000000000 ) ) ;
#266 = PERSON_AND_ORGANIZATION ( #95, #292 ) ;
#267 = DIRECTION ( 'NONE',  ( -1.000000000000000000, 0.000000000000000000, 0.000000000000000000 ) ) ;
#268 = CIRCLE ( 'NONE', #106, 3.999999999999996447 ) ;
#269 = LINE ( 'NONE', #249, #118 ) ;
#270 = FACE_OUTER_BOUND ( 'NONE', #92, .T. ) ;
#271 = DIRECTION ( 'NONE',  ( 0.7071067811865505703, 8.659560562354969836E-17, -0.7071067811865444641 ) ) ;
#272 = PERSON_AND_ORGANIZATION_ROLE ( 'design_owner' ) ;
#273 = DIRECTION ( 'NONE',  ( -0.000000000000000000, -0.000000000000000000, 1.000000000000000000 ) ) ;
#274 = CARTESIAN_POINT ( 'NONE',  ( 0.000000000000000000, 4.699999999999988631, 70.00000000000000000 ) ) ;
#275 = DIRECTION ( 'NONE',  ( 1.000000000000000000, 0.000000000000000000, 0.000000000000000000 ) ) ;
#276 = DIRECTION ( 'NONE',  ( 1.000000000000000000, 0.000000000000000000, 0.000000000000000000 ) ) ;
#277 = ADVANCED_FACE ( 'NONE', ( #270 ), #117, .T. ) ;
#278 = CARTESIAN_POINT ( 'NONE',  ( -5.000000000000000000, 6.123233995736766282E-16, 0.000000000000000000 ) ) ;
#279 = ORIENTED_EDGE ( 'NONE', *, *, #325, .F. ) ;
#280 = EDGE_CURVE ( 'NONE', #182, #202, #221, .T. ) ;
#281 = AXIS2_PLACEMENT_3D ( 'NONE', #102, #299, #49 ) ;
#282 = ORIENTED_EDGE ( 'NONE', *, *, #132, .T. ) ;
#283 = ADVANCED_FACE ( 'NONE', ( #230, #195 ), #53, .F. ) ;
#284 = APPROVAL_PERSON_ORGANIZATION ( #187, #47, #326 ) ;
#285 = ORIENTED_EDGE ( 'NONE', *, *, #31, .T. ) ;
#286 = UNCERTAINTY_MEASURE_WITH_UNIT (LENGTH_MEASURE( 1.000000000000000082E-05 ), #84, 'distance_accuracy_value', 'NONE');
#287 = SHAPE_DEFINITION_REPRESENTATION ( #143, #250 ) ;
#288 = DIRECTION ( 'NONE',  ( -0.000000000000000000, -0.000000000000000000, 1.000000000000000000 ) ) ;
#289 = DATE_AND_TIME ( #213, #334 ) ;
#290 = ORIENTED_EDGE ( 'NONE', *, *, #137, .T. ) ;
#291 = PERSON_AND_ORGANIZATION_ROLE ( 'design_supplier' ) ;
#292 = ORGANIZATION ( 'UNSPECIFIED', 'UNSPECIFIED', '' ) ;
#293 = CARTESIAN_POINT ( 'NONE',  ( 4.901260626809452070, 0.000000000000000000, 21.89999999999999858 ) ) ;
#294 = DATE_AND_TIME ( #240, #196 ) ;
#295 = AXIS2_PLACEMENT_3D ( 'NONE', #159, #189, #321 ) ;
#296 = CARTESIAN_POINT ( 'NONE',  ( 4.000000000000000000, 0.000000000000000000, 0.000000000000000000 ) ) ;
#297 = ORIENTED_EDGE ( 'NONE', *, *, #352, .F. ) ;
#298 = APPROVAL_ROLE ( '' ) ;
#299 = DIRECTION ( 'NONE',  ( -0.000000000000000000, -0.000000000000000000, 1.000000000000000000 ) ) ;
#300 = DIRECTION ( 'NONE',  ( 1.000000000000000000, 0.000000000000000000, 0.000000000000000000 ) ) ;
#301 = CARTESIAN_POINT ( 'NONE',  ( 3.999999999999996447, 0.000000000000000000, 21.89999999999999858 ) ) ;
#302 = DIRECTION ( 'NONE',  ( -0.000000000000000000, -0.000000000000000000, 1.000000000000000000 ) ) ;
#303 = DIRECTION ( 'NONE',  ( -0.000000000000000000, -0.000000000000000000, 1.000000000000000000 ) ) ;
#304 = DIRECTION ( 'NONE',  ( -0.000000000000000000, -0.000000000000000000, 1.000000000000000000 ) ) ;
#305 = FACE_OUTER_BOUND ( 'NONE', #231, .T. ) ;
#306 = CARTESIAN_POINT ( 'NONE',  ( -5.000000000000000000, 6.123233995736766282E-16, 22.64999999999999858 ) ) ;
#307 = ORIENTED_EDGE ( 'NONE', *, *, #29, .F. ) ;
#308 = CIRCLE ( 'NONE', #238, 5.000000000000000000 ) ;
#309 = EDGE_LOOP ( 'NONE', ( #174, #297 ) ) ;
#310 = APPLICATION_CONTEXT ( 'configuration controlled 3d designs of mechanical parts and assemblies' ) ;
#311 = ORIENTED_EDGE ( 'NONE', *, *, #5, .F. ) ;
#312 = VERTEX_POINT ( 'NONE', #306 ) ;
#313 = ORIENTED_EDGE ( 'NONE', *, *, #97, .F. ) ;
#314 = CC_DESIGN_APPROVAL ( #47, ( #261 ) ) ;
#315 = CARTESIAN_POINT ( 'NONE',  ( -5.000000000000000000, 6.123233995736766282E-16, 69.70000000000000284 ) ) ;
#316 = DATE_AND_TIME ( #216, #83 ) ;
#317 = VECTOR ( 'NONE', #303, 1000.000000000000000 ) ;
#318 = ORIENTED_EDGE ( 'NONE', *, *, #29, .T. ) ;
#319 = DIRECTION ( 'NONE',  ( 1.000000000000000000, 0.000000000000000000, 0.000000000000000000 ) ) ;
#320 = EDGE_CURVE ( 'NONE', #36, #145, #198, .T. ) ;
#321 = DIRECTION ( 'NONE',  ( -1.000000000000000000, 0.000000000000000000, 0.000000000000000000 ) ) ;
#322 = CARTESIAN_POINT ( 'NONE',  ( 0.000000000000000000, 0.000000000000000000, 69.70000000000000284 ) ) ;
#323 = AXIS2_PLACEMENT_3D ( 'NONE', #82, #273, #275 ) ;
#324 = DIRECTION ( 'NONE',  ( -0.7071067811865505703, 0.000000000000000000, -0.7071067811865444641 ) ) ;
#325 = EDGE_CURVE ( 'NONE', #312, #66, #103, .T. ) ;
#326 = APPROVAL_ROLE ( '' ) ;
#327 = APPROVAL ( #152, 'UNSPECIFIED' ) ;
#328 = CARTESIAN_POINT ( 'NONE',  ( 4.699999999999988631, 5.939536975864656066E-16, 70.00000000000000000 ) ) ;
#329 = CARTESIAN_POINT ( 'NONE',  ( 5.000000000000000000, 0.000000000000000000, 69.70000000000000284 ) ) ;
#330 = CALENDAR_DATE ( 2022, 15, 12 ) ;
#331 = APPROVAL ( #10, 'UNSPECIFIED' ) ;
#332 = MANIFOLD_SOLID_BREP ( 'Révolution1', #178 ) ;
#333 = EDGE_LOOP ( 'NONE', ( #9, #206, #94, #173 ) ) ;
#334 = LOCAL_TIME ( 10, 12, 56.00000000000000000, #14 ) ;
#335 = CIRCLE ( 'NONE', #185, 4.000000000000000000 ) ;
#336 = ADVANCED_FACE ( 'NONE', ( #305 ), #79, .T. ) ;
#337 = ORIENTED_EDGE ( 'NONE', *, *, #142, .F. ) ;
#338 = AXIS2_PLACEMENT_3D ( 'NONE', #349, #26, #354 ) ;
#339 = APPROVAL_DATE_TIME ( #245, #331 ) ;
#340 = EDGE_LOOP ( 'NONE', ( #148, #32, #67, #307 ) ) ;
#341 = AXIS2_PLACEMENT_3D ( 'NONE', #58, #302, #108 ) ;
#342 = EDGE_LOOP ( 'NONE', ( #63, #255, #347, #90 ) ) ;
#343 = DIRECTION ( 'NONE',  ( -0.1305261922200534330, 1.598484835071805470E-17, 0.9914448613738102711 ) ) ;
#344 = APPROVAL_DATE_TIME ( #289, #327 ) ;
#345 = LOCAL_TIME ( 10, 12, 56.00000000000000000, #183 ) ;
#346 = DIRECTION ( 'NONE',  ( 1.000000000000000000, 0.000000000000000000, 0.000000000000000000 ) ) ;
#347 = ORIENTED_EDGE ( 'NONE', *, *, #5, .T. ) ;
#348 = CARTESIAN_POINT ( 'NONE',  ( -4.699999999999988631, 0.000000000000000000, 70.00000000000000000 ) ) ;
#349 = CARTESIAN_POINT ( 'NONE',  ( 0.000000000000000000, 3.999999999999996447, 21.89999999999999858 ) ) ;
#350 = DIRECTION ( 'NONE',  ( 1.000000000000000000, 0.000000000000000000, 0.000000000000000000 ) ) ;
#351 = CARTESIAN_POINT ( 'NONE',  ( -3.999999999999998224, 4.898587196589410857E-16, 0.000000000000000000 ) ) ;
#352 = EDGE_CURVE ( 'NONE', #36, #7, #98, .T. ) ;
#353 = VECTOR ( 'NONE', #288, 1000.000000000000000 ) ;
#354 = DIRECTION ( 'NONE',  ( 1.000000000000000000, 0.000000000000000000, 0.000000000000000000 ) ) ;
#355 = DIRECTION ( 'NONE',  ( -0.000000000000000000, -0.000000000000000000, 1.000000000000000000 ) ) ;
ENDSEC;
END-ISO-10303-21;
