ISO-10303-21;
HEADER;
FILE_DESCRIPTION (( 'STEP AP203' ),
    '1' );
FILE_NAME ('423534.STEP',
    '2022-12-15T09:29:07',
    ( '' ),
    ( '' ),
    'SwSTEP 2.0',
    'SolidWorks 2019',
    '' );
FILE_SCHEMA (( 'CONFIG_CONTROL_DESIGN' ));
ENDSEC;

DATA;
#1 = CARTESIAN_POINT ( 'NONE',  ( -6.000000000000000000, 7.347880794884119736E-16, 0.000000000000000000 ) ) ;
#2 = DIRECTION ( 'NONE',  ( -0.000000000000000000, -0.000000000000000000, 1.000000000000000000 ) ) ;
#3 = CONICAL_SURFACE ( 'NONE', #204, 5.901260626809453846, 0.1308996938995742876 ) ;
#4 = EDGE_CURVE ( 'NONE', #347, #139, #32, .T. ) ;
#5 = DIRECTION ( 'NONE',  ( -0.000000000000000000, -0.000000000000000000, 1.000000000000000000 ) ) ;
#6 = PERSON_AND_ORGANIZATION ( #331, #70 ) ;
#7 = CARTESIAN_POINT ( 'NONE',  ( 0.000000000000000000, 0.000000000000000000, 26.89999999999999858 ) ) ;
#8 = PERSON_AND_ORGANIZATION ( #331, #70 ) ;
#9 = DIRECTION ( 'NONE',  ( 1.000000000000000000, 0.000000000000000000, 0.000000000000000000 ) ) ;
#10 = CONICAL_SURFACE ( 'NONE', #171, 5.901260626809453846, 0.1308996938995742876 ) ;
#11 = ORIENTED_EDGE ( 'NONE', *, *, #341, .F. ) ;
#12 = ORIENTED_EDGE ( 'NONE', *, *, #37, .T. ) ;
#13 = ORIENTED_EDGE ( 'NONE', *, *, #220, .F. ) ;
#14 = EDGE_CURVE ( 'NONE', #293, #312, #42, .T. ) ;
#15 = AXIS2_PLACEMENT_3D ( 'NONE', #308, #165, #282 ) ;
#16 = DIRECTION ( 'NONE',  ( 1.000000000000000000, 0.000000000000000000, 0.000000000000000000 ) ) ;
#17 = DIRECTION ( 'NONE',  ( -0.000000000000000000, -0.000000000000000000, 1.000000000000000000 ) ) ;
#18 = EDGE_CURVE ( 'NONE', #206, #36, #180, .T. ) ;
#19 = FACE_OUTER_BOUND ( 'NONE', #235, .T. ) ;
#20 =( GEOMETRIC_REPRESENTATION_CONTEXT ( 3 ) GLOBAL_UNCERTAINTY_ASSIGNED_CONTEXT ( ( #221 ) ) GLOBAL_UNIT_ASSIGNED_CONTEXT ( ( #325, #21, #185 ) ) REPRESENTATION_CONTEXT ( 'NONE', 'WORKASPACE' ) );
#21 =( NAMED_UNIT ( * ) PLANE_ANGLE_UNIT ( ) SI_UNIT ( $, .RADIAN. ) );
#22 = PRODUCT ( '423534', '423534', '', ( #226 ) ) ;
#23 = FACE_OUTER_BOUND ( 'NONE', #60, .T. ) ;
#24 = AXIS2_PLACEMENT_3D ( 'NONE', #155, #298, #52 ) ;
#25 = CARTESIAN_POINT ( 'NONE',  ( 0.000000000000000000, 0.000000000000000000, 0.000000000000000000 ) ) ;
#26 = DIRECTION ( 'NONE',  ( -0.000000000000000000, -0.000000000000000000, 1.000000000000000000 ) ) ;
#27 = DIRECTION ( 'NONE',  ( 1.000000000000000000, 0.000000000000000000, 0.000000000000000000 ) ) ;
#28 = APPROVAL_ROLE ( '' ) ;
#29 = ORIENTED_EDGE ( 'NONE', *, *, #69, .F. ) ;
#30 = EDGE_CURVE ( 'NONE', #312, #148, #115, .T. ) ;
#31 = CARTESIAN_POINT ( 'NONE',  ( 0.000000000000000000, 0.000000000000000000, 0.000000000000000000 ) ) ;
#32 = CIRCLE ( 'NONE', #170, 4.999999999999997335 ) ;
#33 = VECTOR ( 'NONE', #297, 1000.000000000000000 ) ;
#34 = APPROVAL_STATUS ( 'not_yet_approved' ) ;
#35 = ORIENTED_EDGE ( 'NONE', *, *, #90, .F. ) ;
#36 = VERTEX_POINT ( 'NONE', #309 ) ;
#37 = EDGE_CURVE ( 'NONE', #148, #237, #217, .T. ) ;
#38 = CARTESIAN_POINT ( 'NONE',  ( 6.000000000000000000, 0.000000000000000000, 27.65000000000000213 ) ) ;
#39 = ORIENTED_EDGE ( 'NONE', *, *, #14, .F. ) ;
#40 = DIRECTION ( 'NONE',  ( 0.000000000000000000, -0.000000000000000000, 1.000000000000000000 ) ) ;
#41 = ADVANCED_FACE ( 'NONE', ( #344 ), #263, .T. ) ;
#42 = CIRCLE ( 'NONE', #184, 5.901260626809453846 ) ;
#43 = DIRECTION ( 'NONE',  ( 0.000000000000000000, -0.000000000000000000, 1.000000000000000000 ) ) ;
#44 = ADVANCED_FACE ( 'NONE', ( #19, #92 ), #146, .F. ) ;
#45 = EDGE_LOOP ( 'NONE', ( #342, #233 ) ) ;
#46 = VECTOR ( 'NONE', #199, 1000.000000000000000 ) ;
#47 = ADVANCED_FACE ( 'NONE', ( #234 ), #153, .F. ) ;
#48 = DIRECTION ( 'NONE',  ( 1.000000000000000000, 0.000000000000000000, 0.000000000000000000 ) ) ;
#49 = DIRECTION ( 'NONE',  ( -0.000000000000000000, -0.000000000000000000, 1.000000000000000000 ) ) ;
#50 = APPROVAL_PERSON_ORGANIZATION ( #167, #264, #28 ) ;
#51 = CARTESIAN_POINT ( 'NONE',  ( -6.000000000000000000, 7.347880794884119736E-16, 27.65000000000000213 ) ) ;
#52 = DIRECTION ( 'NONE',  ( -1.000000000000000000, 0.000000000000000000, 0.000000000000000000 ) ) ;
#53 = CARTESIAN_POINT ( 'NONE',  ( 0.000000000000000000, 0.000000000000000000, 79.00000000000000000 ) ) ;
#54 = AXIS2_PLACEMENT_3D ( 'NONE', #65, #315, #16 ) ;
#55 = CARTESIAN_POINT ( 'NONE',  ( 0.000000000000000000, 0.000000000000000000, 26.89999999999999858 ) ) ;
#56 = CIRCLE ( 'NONE', #104, 6.000000000000000888 ) ;
#57 = FACE_OUTER_BOUND ( 'NONE', #143, .T. ) ;
#58 = SHAPE_DEFINITION_REPRESENTATION ( #74, #202 ) ;
#59 = DATE_AND_TIME ( #195, #100 ) ;
#60 = EDGE_LOOP ( 'NONE', ( #198, #261, #239, #126 ) ) ;
#61 = ADVANCED_FACE ( 'NONE', ( #345 ), #101, .T. ) ;
#62 = PERSON_AND_ORGANIZATION_ROLE ( 'design_supplier' ) ;
#63 = EDGE_LOOP ( 'NONE', ( #117, #175, #266, #35 ) ) ;
#64 = CC_DESIGN_APPROVAL ( #264, ( #156 ) ) ;
#65 = CARTESIAN_POINT ( 'NONE',  ( 0.000000000000000000, 0.000000000000000000, 0.000000000000000000 ) ) ;
#66 = APPROVAL_DATE_TIME ( #176, #130 ) ;
#67 = CARTESIAN_POINT ( 'NONE',  ( -4.999999999999997335, 6.123233995736764310E-16, 26.89999999999999858 ) ) ;
#68 = DIRECTION ( 'NONE',  ( 0.000000000000000000, 0.000000000000000000, -1.000000000000000000 ) ) ;
#69 = EDGE_CURVE ( 'NONE', #237, #148, #151, .T. ) ;
#70 = ORGANIZATION ( 'UNSPECIFIED', 'UNSPECIFIED', '' ) ;
#71 = CARTESIAN_POINT ( 'NONE',  ( 0.000000000000000000, 0.000000000000000000, 26.89999999999999858 ) ) ;
#72 = CARTESIAN_POINT ( 'NONE',  ( 6.000000000000000888, 7.347880794884120722E-16, 78.70000000000000284 ) ) ;
#73 = CC_DESIGN_DATE_AND_TIME_ASSIGNMENT ( #300, #110, ( #156 ) ) ;
#74 = PRODUCT_DEFINITION_SHAPE ( 'NONE', 'NONE',  #334 ) ;
#75 = VECTOR ( 'NONE', #135, 1000.000000000000000 ) ;
#76 = CARTESIAN_POINT ( 'NONE',  ( 0.000000000000000000, 0.000000000000000000, 27.65000000000000213 ) ) ;
#77 = CARTESIAN_POINT ( 'NONE',  ( -5.901260626809453846, 7.287420366220310558E-16, 26.89999999999999858 ) ) ;
#78 = AXIS2_PLACEMENT_3D ( 'NONE', #103, #333, #328 ) ;
#79 = CARTESIAN_POINT ( 'NONE',  ( 5.901260626809453846, 0.000000000000000000, 26.89999999999999858 ) ) ;
#80 = COORDINATED_UNIVERSAL_TIME_OFFSET ( 1, 0, .AHEAD. ) ;
#81 = LINE ( 'NONE', #245, #205 ) ;
#82 = EDGE_LOOP ( 'NONE', ( #200, #119, #249, #124 ) ) ;
#83 = LINE ( 'NONE', #158, #33 ) ;
#84 = APPROVAL_DATE_TIME ( #223, #264 ) ;
#85 = CIRCLE ( 'NONE', #292, 4.999999999999997335 ) ;
#86 = DIRECTION ( 'NONE',  ( 1.000000000000000000, 0.000000000000000000, 0.000000000000000000 ) ) ;
#87 = LOCAL_TIME ( 10, 29, 7.000000000000000000, #80 ) ;
#88 = CARTESIAN_POINT ( 'NONE',  ( 5.901260626809453846, 0.000000000000000000, 26.89999999999999858 ) ) ;
#89 = COORDINATED_UNIVERSAL_TIME_OFFSET ( 1, 0, .AHEAD. ) ;
#90 = EDGE_CURVE ( 'NONE', #139, #347, #85, .T. ) ;
#91 = PERSON_AND_ORGANIZATION ( #331, #70 ) ;
#92 = FACE_BOUND ( 'NONE', #94, .T. ) ;
#93 = PLANE ( 'NONE',  #212 ) ;
#94 = EDGE_LOOP ( 'NONE', ( #338, #289 ) ) ;
#95 = ORIENTED_EDGE ( 'NONE', *, *, #341, .T. ) ;
#96 = AXIS2_PLACEMENT_3D ( 'NONE', #290, #125, #150 ) ;
#97 = LOCAL_TIME ( 10, 29, 7.000000000000000000, #136 ) ;
#98 = ADVANCED_FACE ( 'NONE', ( #121 ), #3, .T. ) ;
#99 = CARTESIAN_POINT ( 'NONE',  ( 0.000000000000000000, 0.000000000000000000, 78.70000000000000284 ) ) ;
#100 = LOCAL_TIME ( 10, 29, 7.000000000000000000, #335 ) ;
#101 = CYLINDRICAL_SURFACE ( 'NONE', #96, 4.999999999999999112 ) ;
#102 = CARTESIAN_POINT ( 'NONE',  ( -5.901260626809453846, 7.226959937556500394E-16, 26.89999999999999858 ) ) ;
#103 = CARTESIAN_POINT ( 'NONE',  ( 0.000000000000000000, 0.000000000000000000, 0.000000000000000000 ) ) ;
#104 = AXIS2_PLACEMENT_3D ( 'NONE', #129, #49, #216 ) ;
#105 = DIRECTION ( 'NONE',  ( -0.000000000000000000, -0.000000000000000000, 1.000000000000000000 ) ) ;
#106 = CALENDAR_DATE ( 2022, 15, 12 ) ;
#107 = DIRECTION ( 'NONE',  ( -0.000000000000000000, -0.000000000000000000, 1.000000000000000000 ) ) ;
#108 = EDGE_CURVE ( 'NONE', #311, #284, #320, .T. ) ;
#109 = LINE ( 'NONE', #102, #343 ) ;
#110 = DATE_TIME_ROLE ( 'classification_date' ) ;
#111 = APPROVAL_STATUS ( 'not_yet_approved' ) ;
#112 = ORIENTED_EDGE ( 'NONE', *, *, #30, .F. ) ;
#113 = CALENDAR_DATE ( 2022, 15, 12 ) ;
#114 = CC_DESIGN_PERSON_AND_ORGANIZATION_ASSIGNMENT ( #144, #302, ( #22 ) ) ;
#115 = LINE ( 'NONE', #88, #46 ) ;
#116 = CIRCLE ( 'NONE', #152, 5.901260626809453846 ) ;
#117 = ORIENTED_EDGE ( 'NONE', *, *, #318, .F. ) ;
#118 = ORIENTED_EDGE ( 'NONE', *, *, #310, .F. ) ;
#119 = ORIENTED_EDGE ( 'NONE', *, *, #318, .T. ) ;
#120 = FACE_OUTER_BOUND ( 'NONE', #278, .T. ) ;
#121 = FACE_OUTER_BOUND ( 'NONE', #255, .T. ) ;
#122 = VERTEX_POINT ( 'NONE', #186 ) ;
#123 = DIRECTION ( 'NONE',  ( 1.000000000000000000, 0.000000000000000000, 0.000000000000000000 ) ) ;
#124 = ORIENTED_EDGE ( 'NONE', *, *, #232, .F. ) ;
#125 = DIRECTION ( 'NONE',  ( -0.000000000000000000, -0.000000000000000000, 1.000000000000000000 ) ) ;
#126 = ORIENTED_EDGE ( 'NONE', *, *, #108, .T. ) ;
#127 = DIRECTION ( 'NONE',  ( 1.000000000000000000, 0.000000000000000000, 0.000000000000000000 ) ) ;
#128 = CARTESIAN_POINT ( 'NONE',  ( -6.000000000000001776, 7.347880794884121708E-16, 78.70000000000000284 ) ) ;
#129 = CARTESIAN_POINT ( 'NONE',  ( 0.000000000000000000, 0.000000000000000000, 78.70000000000000284 ) ) ;
#130 = APPROVAL ( #34, 'UNSPECIFIED' ) ;
#131 = CARTESIAN_POINT ( 'NONE',  ( -5.700000000000003730, 0.000000000000000000, 79.00000000000000000 ) ) ;
#132 = SECURITY_CLASSIFICATION_LEVEL ( 'unclassified' ) ;
#133 = VECTOR ( 'NONE', #105, 1000.000000000000000 ) ;
#134 = ORIENTED_EDGE ( 'NONE', *, *, #295, .T. ) ;
#135 = DIRECTION ( 'NONE',  ( -0.000000000000000000, -0.000000000000000000, 1.000000000000000000 ) ) ;
#136 = COORDINATED_UNIVERSAL_TIME_OFFSET ( 1, 0, .AHEAD. ) ;
#137 = DIRECTION ( 'NONE',  ( -0.000000000000000000, -0.000000000000000000, 1.000000000000000000 ) ) ;
#138 = DIRECTION ( 'NONE',  ( 1.000000000000000000, 0.000000000000000000, 0.000000000000000000 ) ) ;
#139 = VERTEX_POINT ( 'NONE', #67 ) ;
#140 = PRODUCT_DEFINITION_FORMATION_WITH_SPECIFIED_SOURCE ( 'ANY', '', #22, .NOT_KNOWN. ) ;
#141 = ORIENTED_EDGE ( 'NONE', *, *, #301, .F. ) ;
#142 = DIRECTION ( 'NONE',  ( 1.000000000000000000, 0.000000000000000000, 0.000000000000000000 ) ) ;
#143 = EDGE_LOOP ( 'NONE', ( #145, #203, #303, #228 ) ) ;
#144 = PERSON_AND_ORGANIZATION ( #331, #70 ) ;
#145 = ORIENTED_EDGE ( 'NONE', *, *, #295, .F. ) ;
#146 = PLANE ( 'NONE',  #313 ) ;
#147 = ADVANCED_FACE ( 'NONE', ( #23 ), #329, .T. ) ;
#148 = VERTEX_POINT ( 'NONE', #38 ) ;
#149 = CARTESIAN_POINT ( 'NONE',  ( 0.000000000000000000, 0.000000000000000000, 26.89999999999999858 ) ) ;
#150 = DIRECTION ( 'NONE',  ( 1.000000000000000000, 0.000000000000000000, 0.000000000000000000 ) ) ;
#151 = CIRCLE ( 'NONE', #353, 6.000000000000000000 ) ;
#152 = AXIS2_PLACEMENT_3D ( 'NONE', #7, #5, #246 ) ;
#153 = PLANE ( 'NONE',  #330 ) ;
#154 = AXIS2_PLACEMENT_3D ( 'NONE', #99, #322, #123 ) ;
#155 = CARTESIAN_POINT ( 'NONE',  ( 0.000000000000000000, 0.000000000000000000, 78.70000000000000284 ) ) ;
#156 = SECURITY_CLASSIFICATION ( '', '', #132 ) ;
#157 = CARTESIAN_POINT ( 'NONE',  ( 0.000000000000000000, 0.000000000000000000, 0.000000000000000000 ) ) ;
#158 = CARTESIAN_POINT ( 'NONE',  ( -6.000000000000000888, 0.000000000000000000, 78.70000000000000284 ) ) ;
#159 = ADVANCED_FACE ( 'NONE', ( #120 ), #93, .F. ) ;
#160 = APPLICATION_CONTEXT ( 'configuration controlled 3d designs of mechanical parts and assemblies' ) ;
#161 = DIRECTION ( 'NONE',  ( -0.000000000000000000, -0.000000000000000000, 1.000000000000000000 ) ) ;
#162 = MANIFOLD_SOLID_BREP ( 'Révolution2', #286 ) ;
#163 = LINE ( 'NONE', #272, #133 ) ;
#164 = PERSON_AND_ORGANIZATION ( #331, #70 ) ;
#165 = DIRECTION ( 'NONE',  ( -0.000000000000000000, -0.000000000000000000, 1.000000000000000000 ) ) ;
#166 = ADVANCED_FACE ( 'NONE', ( #179 ), #10, .T. ) ;
#167 = PERSON_AND_ORGANIZATION ( #331, #70 ) ;
#168 = PERSON_AND_ORGANIZATION_ROLE ( 'creator' ) ;
#169 = PERSON_AND_ORGANIZATION ( #331, #70 ) ;
#170 = AXIS2_PLACEMENT_3D ( 'NONE', #336, #107, #193 ) ;
#171 = AXIS2_PLACEMENT_3D ( 'NONE', #71, #182, #219 ) ;
#172 = ORIENTED_EDGE ( 'NONE', *, *, #220, .T. ) ;
#173 = APPLICATION_CONTEXT ( 'configuration controlled 3d designs of mechanical parts and assemblies' ) ;
#174 = DIRECTION ( 'NONE',  ( 1.000000000000000000, 0.000000000000000000, 0.000000000000000000 ) ) ;
#175 = ORIENTED_EDGE ( 'NONE', *, *, #279, .T. ) ;
#176 = DATE_AND_TIME ( #256, #321 ) ;
#177 = CARTESIAN_POINT ( 'NONE',  ( 0.000000000000000000, 4.999999999999997335, 26.89999999999999858 ) ) ;
#178 = EDGE_LOOP ( 'NONE', ( #183, #225, #229, #29 ) ) ;
#179 = FACE_OUTER_BOUND ( 'NONE', #178, .T. ) ;
#180 = CIRCLE ( 'NONE', #15, 5.700000000000003730 ) ;
#181 = APPROVAL_PERSON_ORGANIZATION ( #169, #130, #253 ) ;
#182 = DIRECTION ( 'NONE',  ( -0.000000000000000000, -0.000000000000000000, 1.000000000000000000 ) ) ;
#183 = ORIENTED_EDGE ( 'NONE', *, *, #271, .F. ) ;
#184 = AXIS2_PLACEMENT_3D ( 'NONE', #55, #137, #86 ) ;
#185 =( NAMED_UNIT ( * ) SI_UNIT ( $, .STERADIAN. ) SOLID_ANGLE_UNIT ( ) );
#186 = CARTESIAN_POINT ( 'NONE',  ( 5.000000000000000000, 0.000000000000000000, 0.000000000000000000 ) ) ;
#187 = CC_DESIGN_PERSON_AND_ORGANIZATION_ASSIGNMENT ( #6, #285, ( #156 ) ) ;
#188 = CARTESIAN_POINT ( 'NONE',  ( 6.000000000000000888, 0.000000000000000000, 78.70000000000000284 ) ) ;
#189 = CIRCLE ( 'NONE', #218, 5.000000000000000000 ) ;
#190 = FACE_OUTER_BOUND ( 'NONE', #257, .T. ) ;
#191 = DESIGN_CONTEXT ( 'detailed design', #160, 'design' ) ;
#192 = CARTESIAN_POINT ( 'NONE',  ( -4.999999999999999112, 6.123233995736765296E-16, 0.000000000000000000 ) ) ;
#193 = DIRECTION ( 'NONE',  ( 1.000000000000000000, 0.000000000000000000, 0.000000000000000000 ) ) ;
#194 = LINE ( 'NONE', #192, #227 ) ;
#195 = CALENDAR_DATE ( 2022, 15, 12 ) ;
#196 = CC_DESIGN_APPROVAL ( #267, ( #334 ) ) ;
#197 = ADVANCED_FACE ( 'NONE', ( #57 ), #222, .T. ) ;
#198 = ORIENTED_EDGE ( 'NONE', *, *, #350, .F. ) ;
#199 = DIRECTION ( 'NONE',  ( 0.1305261922200511571, 0.000000000000000000, 0.9914448613738104932 ) ) ;
#200 = ORIENTED_EDGE ( 'NONE', *, *, #215, .T. ) ;
#201 = CALENDAR_DATE ( 2022, 15, 12 ) ;
#202 = ADVANCED_BREP_SHAPE_REPRESENTATION ( '423534', ( #162, #276 ), #20 ) ;
#203 = ORIENTED_EDGE ( 'NONE', *, *, #69, .T. ) ;
#204 = AXIS2_PLACEMENT_3D ( 'NONE', #149, #17, #48 ) ;
#205 = VECTOR ( 'NONE', #2, 1000.000000000000000 ) ;
#206 = VERTEX_POINT ( 'NONE', #131 ) ;
#207 = PERSON_AND_ORGANIZATION_ROLE ( 'creator' ) ;
#208 = CARTESIAN_POINT ( 'NONE',  ( 0.000000000000000000, 0.000000000000000000, 0.000000000000000000 ) ) ;
#209 = DIRECTION ( 'NONE',  ( 1.000000000000000000, 0.000000000000000000, 0.000000000000000000 ) ) ;
#210 = CC_DESIGN_PERSON_AND_ORGANIZATION_ASSIGNMENT ( #164, #168, ( #334 ) ) ;
#211 = ORIENTED_EDGE ( 'NONE', *, *, #271, .T. ) ;
#212 = AXIS2_PLACEMENT_3D ( 'NONE', #319, #68, #346 ) ;
#213 = CIRCLE ( 'NONE', #348, 5.700000000000003730 ) ;
#214 = CIRCLE ( 'NONE', #78, 5.000000000000000000 ) ;
#215 = EDGE_CURVE ( 'NONE', #122, #340, #189, .T. ) ;
#216 = DIRECTION ( 'NONE',  ( 1.000000000000000000, 0.000000000000000000, 0.000000000000000000 ) ) ;
#217 = CIRCLE ( 'NONE', #275, 6.000000000000000000 ) ;
#218 = AXIS2_PLACEMENT_3D ( 'NONE', #157, #280, #9 ) ;
#219 = DIRECTION ( 'NONE',  ( 1.000000000000000000, 0.000000000000000000, 0.000000000000000000 ) ) ;
#220 = EDGE_CURVE ( 'NONE', #312, #293, #116, .T. ) ;
#221 = UNCERTAINTY_MEASURE_WITH_UNIT (LENGTH_MEASURE( 1.000000000000000082E-05 ), #325, 'distance_accuracy_value', 'NONE');
#222 = CYLINDRICAL_SURFACE ( 'NONE', #262, 6.000000000000000000 ) ;
#223 = DATE_AND_TIME ( #113, #97 ) ;
#224 = APPROVAL_ROLE ( '' ) ;
#225 = ORIENTED_EDGE ( 'NONE', *, *, #14, .T. ) ;
#226 = MECHANICAL_CONTEXT ( 'NONE', #173, 'mechanical' ) ;
#227 = VECTOR ( 'NONE', #305, 1000.000000000000000 ) ;
#228 = ORIENTED_EDGE ( 'NONE', *, *, #108, .F. ) ;
#229 = ORIENTED_EDGE ( 'NONE', *, *, #30, .T. ) ;
#230 = CARTESIAN_POINT ( 'NONE',  ( 0.000000000000000000, 0.000000000000000000, 0.000000000000000000 ) ) ;
#231 = ORIENTED_EDGE ( 'NONE', *, *, #37, .F. ) ;
#232 = EDGE_CURVE ( 'NONE', #122, #347, #81, .T. ) ;
#233 = ORIENTED_EDGE ( 'NONE', *, *, #279, .F. ) ;
#234 = FACE_OUTER_BOUND ( 'NONE', #45, .T. ) ;
#235 = EDGE_LOOP ( 'NONE', ( #13, #39 ) ) ;
#236 = DIRECTION ( 'NONE',  ( 1.000000000000000000, 0.000000000000000000, 0.000000000000000000 ) ) ;
#237 = VERTEX_POINT ( 'NONE', #51 ) ;
#238 = DIRECTION ( 'NONE',  ( 0.000000000000000000, 0.000000000000000000, -1.000000000000000000 ) ) ;
#239 = ORIENTED_EDGE ( 'NONE', *, *, #301, .T. ) ;
#240 = DIRECTION ( 'NONE',  ( 1.000000000000000000, 0.000000000000000000, 0.000000000000000000 ) ) ;
#241 = CC_DESIGN_SECURITY_CLASSIFICATION ( #156, ( #140 ) ) ;
#242 = LINE ( 'NONE', #72, #304 ) ;
#243 = CARTESIAN_POINT ( 'NONE',  ( 0.000000000000000000, 0.000000000000000000, 78.70000000000000284 ) ) ;
#244 = FACE_OUTER_BOUND ( 'NONE', #247, .T. ) ;
#245 = CARTESIAN_POINT ( 'NONE',  ( 4.999999999999999112, 0.000000000000000000, 0.000000000000000000 ) ) ;
#246 = DIRECTION ( 'NONE',  ( 1.000000000000000000, 0.000000000000000000, 0.000000000000000000 ) ) ;
#247 = EDGE_LOOP ( 'NONE', ( #12, #134, #118, #274 ) ) ;
#248 = DIRECTION ( 'NONE',  ( -0.1305261922200511571, 1.598484835071778045E-17, 0.9914448613738104932 ) ) ;
#249 = ORIENTED_EDGE ( 'NONE', *, *, #4, .F. ) ;
#250 = CARTESIAN_POINT ( 'NONE',  ( -5.000000000000000000, 6.123233995736766282E-16, 0.000000000000000000 ) ) ;
#251 = DATE_AND_TIME ( #201, #254 ) ;
#252 = AXIS2_PLACEMENT_3D ( 'NONE', #243, #238, #355 ) ;
#253 = APPROVAL_ROLE ( '' ) ;
#254 = LOCAL_TIME ( 10, 29, 7.000000000000000000, #281 ) ;
#255 = EDGE_LOOP ( 'NONE', ( #172, #211, #231, #112 ) ) ;
#256 = CALENDAR_DATE ( 2022, 15, 12 ) ;
#257 = EDGE_LOOP ( 'NONE', ( #11, #258, #294, #141 ) ) ;
#258 = ORIENTED_EDGE ( 'NONE', *, *, #350, .T. ) ;
#259 = APPLICATION_PROTOCOL_DEFINITION ( 'international standard', 'config_control_design', 1994, #160 ) ;
#260 = CARTESIAN_POINT ( 'NONE',  ( 0.000000000000000000, 0.000000000000000000, 27.65000000000000213 ) ) ;
#261 = ORIENTED_EDGE ( 'NONE', *, *, #18, .F. ) ;
#262 = AXIS2_PLACEMENT_3D ( 'NONE', #25, #26, #27 ) ;
#263 = CYLINDRICAL_SURFACE ( 'NONE', #54, 4.999999999999999112 ) ;
#264 = APPROVAL ( #277, 'UNSPECIFIED' ) ;
#265 = DIRECTION ( 'NONE',  ( 1.000000000000000000, 0.000000000000000000, 0.000000000000000000 ) ) ;
#266 = ORIENTED_EDGE ( 'NONE', *, *, #232, .T. ) ;
#267 = APPROVAL ( #111, 'UNSPECIFIED' ) ;
#268 = DIRECTION ( 'NONE',  ( -0.000000000000000000, -0.000000000000000000, 1.000000000000000000 ) ) ;
#269 = AXIS2_PLACEMENT_3D ( 'NONE', #31, #299, #138 ) ;
#270 = LINE ( 'NONE', #1, #75 ) ;
#271 = EDGE_CURVE ( 'NONE', #293, #237, #109, .T. ) ;
#272 = CARTESIAN_POINT ( 'NONE',  ( 6.000000000000000000, 0.000000000000000000, 0.000000000000000000 ) ) ;
#273 = CC_DESIGN_PERSON_AND_ORGANIZATION_ASSIGNMENT ( #316, #207, ( #140 ) ) ;
#274 = ORIENTED_EDGE ( 'NONE', *, *, #324, .F. ) ;
#275 = AXIS2_PLACEMENT_3D ( 'NONE', #76, #326, #236 ) ;
#276 = AXIS2_PLACEMENT_3D ( 'NONE', #230, #339, #142 ) ;
#277 = APPROVAL_STATUS ( 'not_yet_approved' ) ;
#278 = EDGE_LOOP ( 'NONE', ( #283, #95 ) ) ;
#279 = EDGE_CURVE ( 'NONE', #340, #122, #214, .T. ) ;
#280 = DIRECTION ( 'NONE',  ( -0.000000000000000000, -0.000000000000000000, 1.000000000000000000 ) ) ;
#281 = COORDINATED_UNIVERSAL_TIME_OFFSET ( 1, 0, .AHEAD. ) ;
#282 = DIRECTION ( 'NONE',  ( 1.000000000000000000, 0.000000000000000000, 0.000000000000000000 ) ) ;
#283 = ORIENTED_EDGE ( 'NONE', *, *, #18, .T. ) ;
#284 = VERTEX_POINT ( 'NONE', #188 ) ;
#285 = PERSON_AND_ORGANIZATION_ROLE ( 'classification_officer' ) ;
#286 = CLOSED_SHELL ( 'NONE', ( #323, #327, #98, #41, #47, #61, #44, #166, #197, #147, #159 ) ) ;
#287 = APPROVAL_DATE_TIME ( #59, #267 ) ;
#288 = APPROVAL_PERSON_ORGANIZATION ( #8, #267, #224 ) ;
#289 = ORIENTED_EDGE ( 'NONE', *, *, #90, .T. ) ;
#290 = CARTESIAN_POINT ( 'NONE',  ( 0.000000000000000000, 0.000000000000000000, 0.000000000000000000 ) ) ;
#291 = CC_DESIGN_PERSON_AND_ORGANIZATION_ASSIGNMENT ( #91, #62, ( #140 ) ) ;
#292 = AXIS2_PLACEMENT_3D ( 'NONE', #349, #317, #265 ) ;
#293 = VERTEX_POINT ( 'NONE', #77 ) ;
#294 = ORIENTED_EDGE ( 'NONE', *, *, #310, .T. ) ;
#295 = EDGE_CURVE ( 'NONE', #237, #311, #270, .T. ) ;
#296 = PRODUCT_RELATED_PRODUCT_CATEGORY ( 'detail', '', ( #22 ) ) ;
#297 = DIRECTION ( 'NONE',  ( -0.7071067811865505703, 0.000000000000000000, -0.7071067811865444641 ) ) ;
#298 = DIRECTION ( 'NONE',  ( 0.000000000000000000, 0.000000000000000000, -1.000000000000000000 ) ) ;
#299 = DIRECTION ( 'NONE',  ( -0.000000000000000000, -0.000000000000000000, 1.000000000000000000 ) ) ;
#300 = DATE_AND_TIME ( #106, #87 ) ;
#301 = EDGE_CURVE ( 'NONE', #206, #311, #83, .T. ) ;
#302 = PERSON_AND_ORGANIZATION_ROLE ( 'design_owner' ) ;
#303 = ORIENTED_EDGE ( 'NONE', *, *, #324, .T. ) ;
#304 = VECTOR ( 'NONE', #351, 1000.000000000000000 ) ;
#305 = DIRECTION ( 'NONE',  ( -0.000000000000000000, -0.000000000000000000, 1.000000000000000000 ) ) ;
#306 = APPLICATION_PROTOCOL_DEFINITION ( 'international standard', 'config_control_design', 1994, #173 ) ;
#307 = CC_DESIGN_DATE_AND_TIME_ASSIGNMENT ( #251, #337, ( #334 ) ) ;
#308 = CARTESIAN_POINT ( 'NONE',  ( 0.000000000000000000, 0.000000000000000000, 79.00000000000000000 ) ) ;
#309 = CARTESIAN_POINT ( 'NONE',  ( 5.700000000000003730, 7.164183775012019380E-16, 79.00000000000000000 ) ) ;
#310 = EDGE_CURVE ( 'NONE', #284, #311, #56, .T. ) ;
#311 = VERTEX_POINT ( 'NONE', #128 ) ;
#312 = VERTEX_POINT ( 'NONE', #79 ) ;
#313 = AXIS2_PLACEMENT_3D ( 'NONE', #177, #43, #174 ) ;
#314 = CONICAL_SURFACE ( 'NONE', #24, 6.000000000000000888, 0.7853981633974526089 ) ;
#315 = DIRECTION ( 'NONE',  ( -0.000000000000000000, -0.000000000000000000, 1.000000000000000000 ) ) ;
#316 = PERSON_AND_ORGANIZATION ( #331, #70 ) ;
#317 = DIRECTION ( 'NONE',  ( -0.000000000000000000, -0.000000000000000000, 1.000000000000000000 ) ) ;
#318 = EDGE_CURVE ( 'NONE', #340, #139, #194, .T. ) ;
#319 = CARTESIAN_POINT ( 'NONE',  ( 0.000000000000000000, 5.700000000000003730, 79.00000000000000000 ) ) ;
#320 = CIRCLE ( 'NONE', #154, 6.000000000000000888 ) ;
#321 = LOCAL_TIME ( 10, 29, 7.000000000000000000, #89 ) ;
#322 = DIRECTION ( 'NONE',  ( -0.000000000000000000, -0.000000000000000000, 1.000000000000000000 ) ) ;
#323 = ADVANCED_FACE ( 'NONE', ( #190 ), #314, .T. ) ;
#324 = EDGE_CURVE ( 'NONE', #148, #284, #163, .T. ) ;
#325 =( LENGTH_UNIT ( ) NAMED_UNIT ( * ) SI_UNIT ( .MILLI., .METRE. ) );
#326 = DIRECTION ( 'NONE',  ( -0.000000000000000000, -0.000000000000000000, 1.000000000000000000 ) ) ;
#327 = ADVANCED_FACE ( 'NONE', ( #244 ), #332, .T. ) ;
#328 = DIRECTION ( 'NONE',  ( 1.000000000000000000, 0.000000000000000000, 0.000000000000000000 ) ) ;
#329 = CONICAL_SURFACE ( 'NONE', #252, 6.000000000000000888, 0.7853981633974526089 ) ;
#330 = AXIS2_PLACEMENT_3D ( 'NONE', #208, #40, #127 ) ;
#331 = PERSON ( 'UNSPECIFIED', 'UNSPECIFIED', 'UNSPECIFIED', ('UNSPECIFIED'), ('UNSPECIFIED'), ('UNSPECIFIED') ) ;
#332 = CYLINDRICAL_SURFACE ( 'NONE', #269, 6.000000000000000000 ) ;
#333 = DIRECTION ( 'NONE',  ( -0.000000000000000000, -0.000000000000000000, 1.000000000000000000 ) ) ;
#334 = PRODUCT_DEFINITION ( 'UNKNOWN', '', #140, #191 ) ;
#335 = COORDINATED_UNIVERSAL_TIME_OFFSET ( 1, 0, .AHEAD. ) ;
#336 = CARTESIAN_POINT ( 'NONE',  ( 0.000000000000000000, 0.000000000000000000, 26.89999999999999858 ) ) ;
#337 = DATE_TIME_ROLE ( 'creation_date' ) ;
#338 = ORIENTED_EDGE ( 'NONE', *, *, #4, .T. ) ;
#339 = DIRECTION ( 'NONE',  ( 0.000000000000000000, 0.000000000000000000, 1.000000000000000000 ) ) ;
#340 = VERTEX_POINT ( 'NONE', #250 ) ;
#341 = EDGE_CURVE ( 'NONE', #36, #206, #213, .T. ) ;
#342 = ORIENTED_EDGE ( 'NONE', *, *, #215, .F. ) ;
#343 = VECTOR ( 'NONE', #248, 1000.000000000000000 ) ;
#344 = FACE_OUTER_BOUND ( 'NONE', #82, .T. ) ;
#345 = FACE_OUTER_BOUND ( 'NONE', #63, .T. ) ;
#346 = DIRECTION ( 'NONE',  ( -1.000000000000000000, 0.000000000000000000, -0.000000000000000000 ) ) ;
#347 = VERTEX_POINT ( 'NONE', #352 ) ;
#348 = AXIS2_PLACEMENT_3D ( 'NONE', #53, #161, #209 ) ;
#349 = CARTESIAN_POINT ( 'NONE',  ( 0.000000000000000000, 0.000000000000000000, 26.89999999999999858 ) ) ;
#350 = EDGE_CURVE ( 'NONE', #36, #284, #242, .T. ) ;
#351 = DIRECTION ( 'NONE',  ( 0.7071067811865505703, 8.659560562354969836E-17, -0.7071067811865444641 ) ) ;
#352 = CARTESIAN_POINT ( 'NONE',  ( 4.999999999999997335, 0.000000000000000000, 26.89999999999999858 ) ) ;
#353 = AXIS2_PLACEMENT_3D ( 'NONE', #260, #268, #240 ) ;
#354 = CC_DESIGN_APPROVAL ( #130, ( #140 ) ) ;
#355 = DIRECTION ( 'NONE',  ( -1.000000000000000000, 0.000000000000000000, 0.000000000000000000 ) ) ;
ENDSEC;
END-ISO-10303-21;
