ISO-10303-21;
HEADER;
FILE_DESCRIPTION (( 'STEP AP203' ),
    '1' );
FILE_NAME ('423532.STEP',
    '2022-12-15T09:09:05',
    ( '' ),
    ( '' ),
    'SwSTEP 2.0',
    'SolidWorks 2019',
    '' );
FILE_SCHEMA (( 'CONFIG_CONTROL_DESIGN' ));
ENDSEC;

DATA;
#1 = EDGE_CURVE ( 'NONE', #284, #4, #334, .T. ) ;
#2 = DIRECTION ( 'NONE',  ( 0.000000000000000000, -6.938893903907226837E-18, 1.000000000000000000 ) ) ;
#3 =( GEOMETRIC_REPRESENTATION_CONTEXT ( 3 ) GLOBAL_UNCERTAINTY_ASSIGNED_CONTEXT ( ( #178 ) ) GLOBAL_UNIT_ASSIGNED_CONTEXT ( ( #250, #354, #23 ) ) REPRESENTATION_CONTEXT ( 'NONE', 'WORKASPACE' ) );
#4 = VERTEX_POINT ( 'NONE', #196 ) ;
#5 = CARTESIAN_POINT ( 'NONE',  ( 0.000000000000000000, 0.000000000000000000, 0.000000000000000000 ) ) ;
#6 = PERSON_AND_ORGANIZATION ( #227, #82 ) ;
#7 = DIRECTION ( 'NONE',  ( -0.000000000000000000, -6.938893903907226837E-18, 1.000000000000000000 ) ) ;
#8 = AXIS2_PLACEMENT_3D ( 'NONE', #279, #225, #252 ) ;
#9 = DATE_AND_TIME ( #214, #44 ) ;
#10 = ADVANCED_BREP_SHAPE_REPRESENTATION ( '423532', ( #33, #129 ), #3 ) ;
#11 = ORIENTED_EDGE ( 'NONE', *, *, #275, .T. ) ;
#12 = AXIS2_PLACEMENT_3D ( 'NONE', #172, #19, #147 ) ;
#13 = CALENDAR_DATE ( 2022, 15, 12 ) ;
#14 = EDGE_CURVE ( 'NONE', #333, #111, #246, .T. ) ;
#15 = DIRECTION ( 'NONE',  ( -0.000000000000000000, -6.938893903907226837E-18, 1.000000000000000000 ) ) ;
#16 = CIRCLE ( 'NONE', #291, 4.000000000000000000 ) ;
#17 = CARTESIAN_POINT ( 'NONE',  ( 0.000000000000000000, -4.163336342344336041E-16, 60.00000000000000000 ) ) ;
#18 = PRODUCT_RELATED_PRODUCT_CATEGORY ( 'detail', '', ( #153 ) ) ;
#19 = DIRECTION ( 'NONE',  ( 0.000000000000000000, 6.938893903907226837E-18, -1.000000000000000000 ) ) ;
#20 = CC_DESIGN_APPROVAL ( #287, ( #90 ) ) ;
#21 = FACE_OUTER_BOUND ( 'NONE', #133, .T. ) ;
#22 = CARTESIAN_POINT ( 'NONE',  ( 0.000000000000000000, 1.444447458290426035E-34, -2.081668171172167897E-17 ) ) ;
#23 =( NAMED_UNIT ( * ) SI_UNIT ( $, .STERADIAN. ) SOLID_ANGLE_UNIT ( ) );
#24 = VERTEX_POINT ( 'NONE', #63 ) ;
#25 = VECTOR ( 'NONE', #315, 1000.000000000000000 ) ;
#26 = VERTEX_POINT ( 'NONE', #352 ) ;
#27 = ORIENTED_EDGE ( 'NONE', *, *, #166, .T. ) ;
#28 = CARTESIAN_POINT ( 'NONE',  ( 0.000000000000000000, -4.142519660632613567E-16, 59.69999999999998863 ) ) ;
#29 = CIRCLE ( 'NONE', #266, 2.999999999999998224 ) ;
#30 = EDGE_LOOP ( 'NONE', ( #54, #37, #256, #107 ) ) ;
#31 = ORIENTED_EDGE ( 'NONE', *, *, #104, .F. ) ;
#32 = CALENDAR_DATE ( 2022, 15, 12 ) ;
#33 = MANIFOLD_SOLID_BREP ( 'Révolution2', #38 ) ;
#34 = APPROVAL_STATUS ( 'not_yet_approved' ) ;
#35 = VECTOR ( 'NONE', #263, 1000.000000000000000 ) ;
#36 = CALENDAR_DATE ( 2022, 15, 12 ) ;
#37 = ORIENTED_EDGE ( 'NONE', *, *, #114, .T. ) ;
#38 = CLOSED_SHELL ( 'NONE', ( #123, #156, #199, #127, #62, #245, #249, #144, #329, #265, #302 ) ) ;
#39 = AXIS2_PLACEMENT_3D ( 'NONE', #216, #151, #212 ) ;
#40 = FACE_OUTER_BOUND ( 'NONE', #52, .T. ) ;
#41 = FACE_OUTER_BOUND ( 'NONE', #282, .T. ) ;
#42 = PRODUCT_DEFINITION ( 'UNKNOWN', '', #90, #233 ) ;
#43 = CIRCLE ( 'NONE', #64, 3.699999999999995293 ) ;
#44 = LOCAL_TIME ( 10, 9, 5.000000000000000000, #174 ) ;
#45 = CARTESIAN_POINT ( 'NONE',  ( 0.000000000000000000, 2.999999999999998224, 16.90000000000000213 ) ) ;
#46 = DIRECTION ( 'NONE',  ( 0.000000000000000000, -1.000000000000000000, -6.938893903907226067E-18 ) ) ;
#47 = AXIS2_PLACEMENT_3D ( 'NONE', #342, #175, #143 ) ;
#48 = CARTESIAN_POINT ( 'NONE',  ( 0.000000000000000000, 0.000000000000000000, 0.000000000000000000 ) ) ;
#49 = EDGE_CURVE ( 'NONE', #193, #284, #276, .T. ) ;
#50 = ORIENTED_EDGE ( 'NONE', *, *, #229, .F. ) ;
#51 = ORIENTED_EDGE ( 'NONE', *, *, #1, .T. ) ;
#52 = EDGE_LOOP ( 'NONE', ( #11, #106 ) ) ;
#53 = CARTESIAN_POINT ( 'NONE',  ( 0.000000000000000000, 0.000000000000000000, 0.000000000000000000 ) ) ;
#54 = ORIENTED_EDGE ( 'NONE', *, *, #343, .T. ) ;
#55 = AXIS2_PLACEMENT_3D ( 'NONE', #45, #2, #134 ) ;
#56 = APPROVAL_ROLE ( '' ) ;
#57 = ORIENTED_EDGE ( 'NONE', *, *, #70, .F. ) ;
#58 = DIRECTION ( 'NONE',  ( 0.000000000000000000, -1.000000000000000000, -6.938893903907226067E-18 ) ) ;
#59 = COORDINATED_UNIVERSAL_TIME_OFFSET ( 1, 0, .AHEAD. ) ;
#60 = VERTEX_POINT ( 'NONE', #298 ) ;
#61 = DIRECTION ( 'NONE',  ( 0.000000000000000000, -1.000000000000000000, 0.000000000000000000 ) ) ;
#62 = ADVANCED_FACE ( 'NONE', ( #344 ), #220, .T. ) ;
#63 = CARTESIAN_POINT ( 'NONE',  ( 4.898587196589412829E-16, 4.000000000000000000, 59.69999999999998863 ) ) ;
#64 = AXIS2_PLACEMENT_3D ( 'NONE', #325, #299, #155 ) ;
#65 = CARTESIAN_POINT ( 'NONE',  ( 0.000000000000000000, -1.172673069760321497E-16, 16.90000000000000213 ) ) ;
#66 = FACE_OUTER_BOUND ( 'NONE', #235, .T. ) ;
#67 = CARTESIAN_POINT ( 'NONE',  ( 0.000000000000000000, 3.699999999999994849, 60.00000000000000000 ) ) ;
#68 = AXIS2_PLACEMENT_3D ( 'NONE', #177, #264, #148 ) ;
#69 = PLANE ( 'NONE',  #226 ) ;
#70 = EDGE_CURVE ( 'NONE', #284, #193, #77, .T. ) ;
#71 = CARTESIAN_POINT ( 'NONE',  ( 0.000000000000000000, -4.000000000000000000, 17.65000000000000213 ) ) ;
#72 = AXIS2_PLACEMENT_3D ( 'NONE', #17, #118, #120 ) ;
#73 = DIRECTION ( 'NONE',  ( 1.598484835071785132E-17, 0.1305261922200517399, 0.9914448613738104932 ) ) ;
#74 = ORIENTED_EDGE ( 'NONE', *, *, #229, .T. ) ;
#75 = DIRECTION ( 'NONE',  ( 0.000000000000000000, 0.000000000000000000, 1.000000000000000000 ) ) ;
#76 = CARTESIAN_POINT ( 'NONE',  ( 0.000000000000000000, 7.222237291452130173E-35, -1.040834085586083948E-17 ) ) ;
#77 = CIRCLE ( 'NONE', #97, 4.000000000000000000 ) ;
#78 = ORIENTED_EDGE ( 'NONE', *, *, #152, .T. ) ;
#79 = EDGE_LOOP ( 'NONE', ( #109, #283 ) ) ;
#80 = VERTEX_POINT ( 'NONE', #270 ) ;
#81 = CARTESIAN_POINT ( 'NONE',  ( 4.838126767925603651E-16, 3.901260626809452958, 16.90000000000000213 ) ) ;
#82 = ORGANIZATION ( 'UNSPECIFIED', 'UNSPECIFIED', '' ) ;
#83 = ORIENTED_EDGE ( 'NONE', *, *, #94, .F. ) ;
#84 = DATE_AND_TIME ( #32, #248 ) ;
#85 = ORIENTED_EDGE ( 'NONE', *, *, #135, .F. ) ;
#86 = CYLINDRICAL_SURFACE ( 'NONE', #211, 2.999999999999999112 ) ;
#87 = CARTESIAN_POINT ( 'NONE',  ( 0.000000000000000000, 0.000000000000000000, 0.000000000000000000 ) ) ;
#88 = SECURITY_CLASSIFICATION_LEVEL ( 'unclassified' ) ;
#89 = FACE_OUTER_BOUND ( 'NONE', #138, .T. ) ;
#90 = PRODUCT_DEFINITION_FORMATION_WITH_SPECIFIED_SOURCE ( 'ANY', '', #153, .NOT_KNOWN. ) ;
#91 = SHAPE_DEFINITION_REPRESENTATION ( #150, #10 ) ;
#92 = FACE_OUTER_BOUND ( 'NONE', #161, .T. ) ;
#93 = LINE ( 'NONE', #215, #347 ) ;
#94 = EDGE_CURVE ( 'NONE', #130, #24, #293, .T. ) ;
#95 = DIRECTION ( 'NONE',  ( 0.000000000000000000, 0.7071067811865430208, -0.7071067811865521247 ) ) ;
#96 = DIRECTION ( 'NONE',  ( 0.000000000000000000, -1.000000000000000000, -6.938893903907226837E-18 ) ) ;
#97 = AXIS2_PLACEMENT_3D ( 'NONE', #261, #322, #173 ) ;
#98 = AXIS2_PLACEMENT_3D ( 'NONE', #76, #326, #339 ) ;
#99 = DIRECTION ( 'NONE',  ( 0.000000000000000000, -1.000000000000000000, 0.000000000000000000 ) ) ;
#100 = DIRECTION ( 'NONE',  ( 0.000000000000000000, -1.000000000000000000, 0.000000000000000000 ) ) ;
#101 = LINE ( 'NONE', #189, #295 ) ;
#102 = CC_DESIGN_DATE_AND_TIME_ASSIGNMENT ( #167, #146, ( #42 ) ) ;
#103 = DIRECTION ( 'NONE',  ( -0.000000000000000000, -6.938893903907226837E-18, 1.000000000000000000 ) ) ;
#104 = EDGE_CURVE ( 'NONE', #80, #278, #29, .T. ) ;
#105 = CC_DESIGN_PERSON_AND_ORGANIZATION_ASSIGNMENT ( #115, #262, ( #90 ) ) ;
#106 = ORIENTED_EDGE ( 'NONE', *, *, #206, .T. ) ;
#107 = ORIENTED_EDGE ( 'NONE', *, *, #254, .F. ) ;
#108 = PERSON_AND_ORGANIZATION_ROLE ( 'design_owner' ) ;
#109 = ORIENTED_EDGE ( 'NONE', *, *, #343, .F. ) ;
#110 = AXIS2_PLACEMENT_3D ( 'NONE', #351, #345, #100 ) ;
#111 = VERTEX_POINT ( 'NONE', #349 ) ;
#112 = COORDINATED_UNIVERSAL_TIME_OFFSET ( 1, 0, .AHEAD. ) ;
#113 = LOCAL_TIME ( 10, 9, 5.000000000000000000, #238 ) ;
#114 = EDGE_CURVE ( 'NONE', #26, #80, #93, .T. ) ;
#115 = PERSON_AND_ORGANIZATION ( #227, #82 ) ;
#116 = PERSON_AND_ORGANIZATION_ROLE ( 'creator' ) ;
#117 = ORIENTED_EDGE ( 'NONE', *, *, #324, .T. ) ;
#118 = DIRECTION ( 'NONE',  ( -0.000000000000000000, -6.938893903907226837E-18, 1.000000000000000000 ) ) ;
#119 = DIRECTION ( 'NONE',  ( 0.000000000000000000, -1.000000000000000000, 0.000000000000000000 ) ) ;
#120 = DIRECTION ( 'NONE',  ( 0.000000000000000000, -1.000000000000000000, 0.000000000000000000 ) ) ;
#121 = DIRECTION ( 'NONE',  ( -0.000000000000000000, -6.938893903907226837E-18, 1.000000000000000000 ) ) ;
#122 = DIRECTION ( 'NONE',  ( 0.000000000000000000, 1.000000000000000000, 0.000000000000000000 ) ) ;
#123 = ADVANCED_FACE ( 'NONE', ( #244 ), #260, .T. ) ;
#124 = CC_DESIGN_DATE_AND_TIME_ASSIGNMENT ( #165, #176, ( #297 ) ) ;
#125 = LINE ( 'NONE', #300, #308 ) ;
#126 = DIRECTION ( 'NONE',  ( -0.000000000000000000, -6.938893903907226837E-18, 1.000000000000000000 ) ) ;
#127 = ADVANCED_FACE ( 'NONE', ( #66 ), #149, .T. ) ;
#128 = ORIENTED_EDGE ( 'NONE', *, *, #336, .F. ) ;
#129 = AXIS2_PLACEMENT_3D ( 'NONE', #48, #75, #159 ) ;
#130 = VERTEX_POINT ( 'NONE', #184 ) ;
#131 = APPLICATION_PROTOCOL_DEFINITION ( 'international standard', 'config_control_design', 1994, #188 ) ;
#132 = LINE ( 'NONE', #195, #232 ) ;
#133 = EDGE_LOOP ( 'NONE', ( #162, #230, #294, #31 ) ) ;
#134 = DIRECTION ( 'NONE',  ( 0.000000000000000000, -1.000000000000000000, -6.938893903907226837E-18 ) ) ;
#135 = EDGE_CURVE ( 'NONE', #111, #284, #132, .T. ) ;
#136 = EDGE_LOOP ( 'NONE', ( #306, #348, #51, #286 ) ) ;
#137 = AXIS2_PLACEMENT_3D ( 'NONE', #321, #222, #122 ) ;
#138 = EDGE_LOOP ( 'NONE', ( #179, #160, #200, #78 ) ) ;
#139 = PERSON_AND_ORGANIZATION_ROLE ( 'classification_officer' ) ;
#140 = ORIENTED_EDGE ( 'NONE', *, *, #217, .F. ) ;
#141 = PERSON_AND_ORGANIZATION ( #227, #82 ) ;
#142 = APPROVAL_PERSON_ORGANIZATION ( #141, #287, #56 ) ;
#143 = DIRECTION ( 'NONE',  ( 0.000000000000000000, -1.000000000000000000, 0.000000000000000000 ) ) ;
#144 = ADVANCED_FACE ( 'NONE', ( #228 ), #355, .F. ) ;
#145 = CARTESIAN_POINT ( 'NONE',  ( 4.714890176717306557E-16, -3.699999999999995737, 60.00000000000000000 ) ) ;
#146 = DATE_TIME_ROLE ( 'creation_date' ) ;
#147 = DIRECTION ( 'NONE',  ( 0.000000000000000000, 1.000000000000000000, 0.000000000000000000 ) ) ;
#148 = DIRECTION ( 'NONE',  ( 0.000000000000000000, -1.000000000000000000, 0.000000000000000000 ) ) ;
#149 = CYLINDRICAL_SURFACE ( 'NONE', #191, 4.000000000000000000 ) ;
#150 = PRODUCT_DEFINITION_SHAPE ( 'NONE', 'NONE',  #42 ) ;
#151 = DIRECTION ( 'NONE',  ( -0.000000000000000000, -6.938893903907226837E-18, 1.000000000000000000 ) ) ;
#152 = EDGE_CURVE ( 'NONE', #24, #4, #16, .T. ) ;
#153 = PRODUCT ( '423532', '423532', '', ( #305 ) ) ;
#154 = CONICAL_SURFACE ( 'NONE', #8, 3.901260626809452958, 0.1308996938995748427 ) ;
#155 = DIRECTION ( 'NONE',  ( 0.000000000000000000, -1.000000000000000000, 0.000000000000000000 ) ) ;
#156 = ADVANCED_FACE ( 'NONE', ( #198 ), #86, .T. ) ;
#157 = CYLINDRICAL_SURFACE ( 'NONE', #301, 2.999999999999999112 ) ;
#158 = LOCAL_TIME ( 10, 9, 5.000000000000000000, #59 ) ;
#159 = DIRECTION ( 'NONE',  ( 1.000000000000000000, 0.000000000000000000, 0.000000000000000000 ) ) ;
#160 = ORIENTED_EDGE ( 'NONE', *, *, #275, .F. ) ;
#161 = EDGE_LOOP ( 'NONE', ( #140, #340 ) ) ;
#162 = ORIENTED_EDGE ( 'NONE', *, *, #114, .F. ) ;
#163 = CARTESIAN_POINT ( 'NONE',  ( 4.898587196589412829E-16, -4.000000000000000000, 59.69999999999998863 ) ) ;
#164 = CIRCLE ( 'NONE', #39, 4.000000000000000000 ) ;
#165 = DATE_AND_TIME ( #36, #251 ) ;
#166 = EDGE_CURVE ( 'NONE', #234, #4, #208, .T. ) ;
#167 = DATE_AND_TIME ( #13, #158 ) ;
#168 = ORIENTED_EDGE ( 'NONE', *, *, #14, .T. ) ;
#169 = DIRECTION ( 'NONE',  ( -0.000000000000000000, -6.938893903907226837E-18, 1.000000000000000000 ) ) ;
#170 = DATE_AND_TIME ( #317, #113 ) ;
#171 = AXIS2_PLACEMENT_3D ( 'NONE', #22, #185, #46 ) ;
#172 = CARTESIAN_POINT ( 'NONE',  ( 0.000000000000000000, -4.142519660632613567E-16, 59.69999999999998863 ) ) ;
#173 = DIRECTION ( 'NONE',  ( 0.000000000000000000, -1.000000000000000000, 0.000000000000000000 ) ) ;
#174 = COORDINATED_UNIVERSAL_TIME_OFFSET ( 1, 0, .AHEAD. ) ;
#175 = DIRECTION ( 'NONE',  ( -0.000000000000000000, -6.938893903907226837E-18, 1.000000000000000000 ) ) ;
#176 = DATE_TIME_ROLE ( 'classification_date' ) ;
#177 = CARTESIAN_POINT ( 'NONE',  ( 0.000000000000000000, -1.172673069760321497E-16, 16.90000000000000213 ) ) ;
#178 = UNCERTAINTY_MEASURE_WITH_UNIT (LENGTH_MEASURE( 1.000000000000000082E-05 ), #250, 'distance_accuracy_value', 'NONE');
#179 = ORIENTED_EDGE ( 'NONE', *, *, #166, .F. ) ;
#180 = DIRECTION ( 'NONE',  ( 0.000000000000000000, 6.938893903907226837E-18, -1.000000000000000000 ) ) ;
#181 = AXIS2_PLACEMENT_3D ( 'NONE', #65, #247, #99 ) ;
#182 = CC_DESIGN_APPROVAL ( #281, ( #297 ) ) ;
#183 = DIRECTION ( 'NONE',  ( 0.000000000000000000, -1.000000000000000000, -6.938893903907226837E-18 ) ) ;
#184 = CARTESIAN_POINT ( 'NONE',  ( 0.000000000000000000, 3.699999999999994849, 60.00000000000000000 ) ) ;
#185 = DIRECTION ( 'NONE',  ( -0.000000000000000000, -6.938893903907226837E-18, 1.000000000000000000 ) ) ;
#186 = VECTOR ( 'NONE', #95, 999.9999999999998863 ) ;
#187 = DIRECTION ( 'NONE',  ( 0.000000000000000000, -1.000000000000000000, -6.938893903907226067E-18 ) ) ;
#188 = APPLICATION_CONTEXT ( 'configuration controlled 3d designs of mechanical parts and assemblies' ) ;
#189 = CARTESIAN_POINT ( 'NONE',  ( 4.898587196589412829E-16, 4.000000000000000000, 2.775557561562890735E-17 ) ) ;
#190 = DIRECTION ( 'NONE',  ( -0.000000000000000000, -6.938893903907226837E-18, 1.000000000000000000 ) ) ;
#191 = AXIS2_PLACEMENT_3D ( 'NONE', #269, #121, #96 ) ;
#192 = CIRCLE ( 'NONE', #181, 3.901260626809452958 ) ;
#193 = VERTEX_POINT ( 'NONE', #335 ) ;
#194 = CC_DESIGN_SECURITY_CLASSIFICATION ( #297, ( #90 ) ) ;
#195 = CARTESIAN_POINT ( 'NONE',  ( 0.000000000000000000, -3.901260626809452958, 16.90000000000000213 ) ) ;
#196 = CARTESIAN_POINT ( 'NONE',  ( 0.000000000000000000, -4.000000000000000000, 59.69999999999998863 ) ) ;
#197 = ORIENTED_EDGE ( 'NONE', *, *, #217, .T. ) ;
#198 = FACE_OUTER_BOUND ( 'NONE', #30, .T. ) ;
#199 = ADVANCED_FACE ( 'NONE', ( #290 ), #331, .T. ) ;
#200 = ORIENTED_EDGE ( 'NONE', *, *, #94, .T. ) ;
#201 = CIRCLE ( 'NONE', #221, 2.999999999999998224 ) ;
#202 = APPROVAL_STATUS ( 'not_yet_approved' ) ;
#203 = CC_DESIGN_PERSON_AND_ORGANIZATION_ASSIGNMENT ( #313, #116, ( #42 ) ) ;
#204 = EDGE_LOOP ( 'NONE', ( #197, #210, #57, #85 ) ) ;
#205 = PERSON_AND_ORGANIZATION ( #227, #82 ) ;
#206 = EDGE_CURVE ( 'NONE', #234, #130, #242, .T. ) ;
#207 = CC_DESIGN_PERSON_AND_ORGANIZATION_ASSIGNMENT ( #338, #209, ( #90 ) ) ;
#208 = LINE ( 'NONE', #163, #318 ) ;
#209 = PERSON_AND_ORGANIZATION_ROLE ( 'creator' ) ;
#210 = ORIENTED_EDGE ( 'NONE', *, *, #336, .T. ) ;
#211 = AXIS2_PLACEMENT_3D ( 'NONE', #53, #169, #58 ) ;
#212 = DIRECTION ( 'NONE',  ( 0.000000000000000000, -1.000000000000000000, 0.000000000000000000 ) ) ;
#213 = CARTESIAN_POINT ( 'NONE',  ( 0.000000000000000000, 4.000000000000000000, 59.69999999999998863 ) ) ;
#214 = CALENDAR_DATE ( 2022, 15, 12 ) ;
#215 = CARTESIAN_POINT ( 'NONE',  ( 3.673940397442058882E-16, 2.999999999999999112, 2.081668171172167281E-17 ) ) ;
#216 = CARTESIAN_POINT ( 'NONE',  ( 0.000000000000000000, -4.142519660632613567E-16, 59.69999999999998863 ) ) ;
#217 = EDGE_CURVE ( 'NONE', #111, #333, #192, .T. ) ;
#218 = CC_DESIGN_PERSON_AND_ORGANIZATION_ASSIGNMENT ( #205, #139, ( #297 ) ) ;
#219 = DIRECTION ( 'NONE',  ( 0.000000000000000000, 1.000000000000000000, 6.938893903907226837E-18 ) ) ;
#220 = CYLINDRICAL_SURFACE ( 'NONE', #307, 4.000000000000000000 ) ;
#221 = AXIS2_PLACEMENT_3D ( 'NONE', #271, #103, #231 ) ;
#222 = DIRECTION ( 'NONE',  ( 0.000000000000000000, 6.938893903907226837E-18, -1.000000000000000000 ) ) ;
#223 = PLANE ( 'NONE',  #55 ) ;
#224 = APPROVAL ( #34, 'UNSPECIFIED' ) ;
#225 = DIRECTION ( 'NONE',  ( -0.000000000000000000, -6.938893903907226837E-18, 1.000000000000000000 ) ) ;
#226 = AXIS2_PLACEMENT_3D ( 'NONE', #67, #180, #219 ) ;
#227 = PERSON ( 'UNSPECIFIED', 'UNSPECIFIED', 'UNSPECIFIED', ('UNSPECIFIED'), ('UNSPECIFIED'), ('UNSPECIFIED') ) ;
#228 = FACE_OUTER_BOUND ( 'NONE', #79, .T. ) ;
#229 = EDGE_CURVE ( 'NONE', #4, #24, #164, .T. ) ;
#230 = ORIENTED_EDGE ( 'NONE', *, *, #328, .T. ) ;
#231 = DIRECTION ( 'NONE',  ( 0.000000000000000000, -1.000000000000000000, 0.000000000000000000 ) ) ;
#232 = VECTOR ( 'NONE', #253, 999.9999999999998863 ) ;
#233 = DESIGN_CONTEXT ( 'detailed design', #237, 'design' ) ;
#234 = VERTEX_POINT ( 'NONE', #145 ) ;
#235 = EDGE_LOOP ( 'NONE', ( #311, #304, #50, #332 ) ) ;
#236 = CARTESIAN_POINT ( 'NONE',  ( 0.000000000000000000, -4.000000000000000000, -2.775557561562890735E-17 ) ) ;
#237 = APPLICATION_CONTEXT ( 'configuration controlled 3d designs of mechanical parts and assemblies' ) ;
#238 = COORDINATED_UNIVERSAL_TIME_OFFSET ( 1, 0, .AHEAD. ) ;
#239 = CIRCLE ( 'NONE', #337, 3.000000000000000000 ) ;
#240 = APPROVAL_ROLE ( '' ) ;
#241 = APPROVAL_DATE_TIME ( #9, #281 ) ;
#242 = CIRCLE ( 'NONE', #72, 3.699999999999995293 ) ;
#243 = FACE_BOUND ( 'NONE', #258, .T. ) ;
#244 = FACE_OUTER_BOUND ( 'NONE', #204, .T. ) ;
#245 = ADVANCED_FACE ( 'NONE', ( #89 ), #272, .T. ) ;
#246 = CIRCLE ( 'NONE', #68, 3.901260626809452958 ) ;
#247 = DIRECTION ( 'NONE',  ( -0.000000000000000000, -6.938893903907226837E-18, 1.000000000000000000 ) ) ;
#248 = LOCAL_TIME ( 10, 9, 5.000000000000000000, #112 ) ;
#249 = ADVANCED_FACE ( 'NONE', ( #40 ), #69, .F. ) ;
#250 =( LENGTH_UNIT ( ) NAMED_UNIT ( * ) SI_UNIT ( .MILLI., .METRE. ) );
#251 = LOCAL_TIME ( 10, 9, 5.000000000000000000, #346 ) ;
#252 = DIRECTION ( 'NONE',  ( 0.000000000000000000, -1.000000000000000000, 0.000000000000000000 ) ) ;
#253 = DIRECTION ( 'NONE',  ( 0.000000000000000000, -0.1305261922200517399, 0.9914448613738104932 ) ) ;
#254 = EDGE_CURVE ( 'NONE', #60, #278, #296, .T. ) ;
#255 = CIRCLE ( 'NONE', #171, 3.000000000000000000 ) ;
#256 = ORIENTED_EDGE ( 'NONE', *, *, #324, .F. ) ;
#257 = APPLICATION_PROTOCOL_DEFINITION ( 'international standard', 'config_control_design', 1994, #237 ) ;
#258 = EDGE_LOOP ( 'NONE', ( #117, #280 ) ) ;
#259 = APPROVAL_DATE_TIME ( #84, #287 ) ;
#260 = CONICAL_SURFACE ( 'NONE', #110, 3.901260626809452958, 0.1308996938995748427 ) ;
#261 = CARTESIAN_POINT ( 'NONE',  ( 0.000000000000000000, -1.224714774039625710E-16, 17.65000000000000213 ) ) ;
#262 = PERSON_AND_ORGANIZATION_ROLE ( 'design_supplier' ) ;
#263 = DIRECTION ( 'NONE',  ( -0.000000000000000000, -6.938893903907226837E-18, 1.000000000000000000 ) ) ;
#264 = DIRECTION ( 'NONE',  ( -0.000000000000000000, -6.938893903907226837E-18, 1.000000000000000000 ) ) ;
#265 = ADVANCED_FACE ( 'NONE', ( #92, #243 ), #223, .F. ) ;
#266 = AXIS2_PLACEMENT_3D ( 'NONE', #292, #15, #119 ) ;
#267 = APPROVAL_PERSON_ORGANIZATION ( #320, #281, #240 ) ;
#268 = DIRECTION ( 'NONE',  ( -0.000000000000000000, -6.938893903907226837E-18, 1.000000000000000000 ) ) ;
#269 = CARTESIAN_POINT ( 'NONE',  ( 0.000000000000000000, 0.000000000000000000, 0.000000000000000000 ) ) ;
#270 = CARTESIAN_POINT ( 'NONE',  ( 3.673940397442058389E-16, 2.999999999999998224, 16.90000000000000213 ) ) ;
#271 = CARTESIAN_POINT ( 'NONE',  ( 0.000000000000000000, -1.172673069760321497E-16, 16.90000000000000213 ) ) ;
#272 = CONICAL_SURFACE ( 'NONE', #137, 4.000000000000000000, 0.7853981633974418397 ) ;
#273 = CARTESIAN_POINT ( 'NONE',  ( 0.000000000000000000, 1.444447458290426035E-34, -2.081668171172167897E-17 ) ) ;
#274 = ORIENTED_EDGE ( 'NONE', *, *, #135, .T. ) ;
#275 = EDGE_CURVE ( 'NONE', #130, #234, #43, .T. ) ;
#276 = CIRCLE ( 'NONE', #47, 4.000000000000000000 ) ;
#277 = APPROVAL_PERSON_ORGANIZATION ( #341, #224, #289 ) ;
#278 = VERTEX_POINT ( 'NONE', #330 ) ;
#279 = CARTESIAN_POINT ( 'NONE',  ( 0.000000000000000000, -1.172673069760321497E-16, 16.90000000000000213 ) ) ;
#280 = ORIENTED_EDGE ( 'NONE', *, *, #104, .T. ) ;
#281 = APPROVAL ( #312, 'UNSPECIFIED' ) ;
#282 = EDGE_LOOP ( 'NONE', ( #128, #168, #274, #309 ) ) ;
#283 = ORIENTED_EDGE ( 'NONE', *, *, #328, .F. ) ;
#284 = VERTEX_POINT ( 'NONE', #71 ) ;
#285 = ORIENTED_EDGE ( 'NONE', *, *, #206, .F. ) ;
#286 = ORIENTED_EDGE ( 'NONE', *, *, #152, .F. ) ;
#287 = APPROVAL ( #202, 'UNSPECIFIED' ) ;
#288 = DIRECTION ( 'NONE',  ( 8.659560562354877391E-17, -0.7071067811865430208, -0.7071067811865521247 ) ) ;
#289 = APPROVAL_ROLE ( '' ) ;
#290 = FACE_OUTER_BOUND ( 'NONE', #314, .T. ) ;
#291 = AXIS2_PLACEMENT_3D ( 'NONE', #28, #7, #61 ) ;
#292 = CARTESIAN_POINT ( 'NONE',  ( 0.000000000000000000, -1.172673069760321497E-16, 16.90000000000000213 ) ) ;
#293 = LINE ( 'NONE', #213, #186 ) ;
#294 = ORIENTED_EDGE ( 'NONE', *, *, #254, .T. ) ;
#295 = VECTOR ( 'NONE', #327, 1000.000000000000000 ) ;
#296 = LINE ( 'NONE', #319, #35 ) ;
#297 = SECURITY_CLASSIFICATION ( '', '', #88 ) ;
#298 = CARTESIAN_POINT ( 'NONE',  ( 0.000000000000000000, -3.000000000000000000, -4.163336342344335794E-17 ) ) ;
#299 = DIRECTION ( 'NONE',  ( -0.000000000000000000, -6.938893903907226837E-18, 1.000000000000000000 ) ) ;
#300 = CARTESIAN_POINT ( 'NONE',  ( 4.777666339261793487E-16, 3.901260626809452958, 16.90000000000000213 ) ) ;
#301 = AXIS2_PLACEMENT_3D ( 'NONE', #5, #190, #187 ) ;
#302 = ADVANCED_FACE ( 'NONE', ( #41 ), #154, .T. ) ;
#303 = DIRECTION ( 'NONE',  ( 0.000000000000000000, -1.000000000000000000, -6.938893903907226067E-18 ) ) ;
#304 = ORIENTED_EDGE ( 'NONE', *, *, #310, .T. ) ;
#305 = MECHANICAL_CONTEXT ( 'NONE', #188, 'mechanical' ) ;
#306 = ORIENTED_EDGE ( 'NONE', *, *, #310, .F. ) ;
#307 = AXIS2_PLACEMENT_3D ( 'NONE', #87, #316, #183 ) ;
#308 = VECTOR ( 'NONE', #73, 999.9999999999998863 ) ;
#309 = ORIENTED_EDGE ( 'NONE', *, *, #49, .F. ) ;
#310 = EDGE_CURVE ( 'NONE', #193, #24, #101, .T. ) ;
#311 = ORIENTED_EDGE ( 'NONE', *, *, #70, .T. ) ;
#312 = APPROVAL_STATUS ( 'not_yet_approved' ) ;
#313 = PERSON_AND_ORGANIZATION ( #227, #82 ) ;
#314 = EDGE_LOOP ( 'NONE', ( #285, #27, #74, #83 ) ) ;
#315 = DIRECTION ( 'NONE',  ( -0.000000000000000000, -6.938893903907226837E-18, 1.000000000000000000 ) ) ;
#316 = DIRECTION ( 'NONE',  ( -0.000000000000000000, -6.938893903907226837E-18, 1.000000000000000000 ) ) ;
#317 = CALENDAR_DATE ( 2022, 15, 12 ) ;
#318 = VECTOR ( 'NONE', #288, 999.9999999999998863 ) ;
#319 = CARTESIAN_POINT ( 'NONE',  ( 0.000000000000000000, -2.999999999999999112, -2.081668171172167281E-17 ) ) ;
#320 = PERSON_AND_ORGANIZATION ( #227, #82 ) ;
#321 = CARTESIAN_POINT ( 'NONE',  ( 0.000000000000000000, -4.142519660632613567E-16, 59.69999999999998863 ) ) ;
#322 = DIRECTION ( 'NONE',  ( -0.000000000000000000, -6.938893903907226837E-18, 1.000000000000000000 ) ) ;
#323 = CC_DESIGN_APPROVAL ( #224, ( #42 ) ) ;
#324 = EDGE_CURVE ( 'NONE', #278, #80, #201, .T. ) ;
#325 = CARTESIAN_POINT ( 'NONE',  ( 0.000000000000000000, -4.163336342344336041E-16, 60.00000000000000000 ) ) ;
#326 = DIRECTION ( 'NONE',  ( 0.000000000000000000, -6.938893903907226837E-18, 1.000000000000000000 ) ) ;
#327 = DIRECTION ( 'NONE',  ( -0.000000000000000000, -6.938893903907226837E-18, 1.000000000000000000 ) ) ;
#328 = EDGE_CURVE ( 'NONE', #26, #60, #255, .T. ) ;
#329 = ADVANCED_FACE ( 'NONE', ( #21 ), #157, .T. ) ;
#330 = CARTESIAN_POINT ( 'NONE',  ( 0.000000000000000000, -2.999999999999998224, 16.90000000000000213 ) ) ;
#331 = CONICAL_SURFACE ( 'NONE', #12, 4.000000000000000000, 0.7853981633974418397 ) ;
#332 = ORIENTED_EDGE ( 'NONE', *, *, #1, .F. ) ;
#333 = VERTEX_POINT ( 'NONE', #81 ) ;
#334 = LINE ( 'NONE', #236, #25 ) ;
#335 = CARTESIAN_POINT ( 'NONE',  ( 4.898587196589412829E-16, 4.000000000000000000, 17.65000000000000213 ) ) ;
#336 = EDGE_CURVE ( 'NONE', #333, #193, #125, .T. ) ;
#337 = AXIS2_PLACEMENT_3D ( 'NONE', #273, #126, #303 ) ;
#338 = PERSON_AND_ORGANIZATION ( #227, #82 ) ;
#339 = DIRECTION ( 'NONE',  ( 0.000000000000000000, -1.000000000000000000, -6.938893903907226837E-18 ) ) ;
#340 = ORIENTED_EDGE ( 'NONE', *, *, #14, .F. ) ;
#341 = PERSON_AND_ORGANIZATION ( #227, #82 ) ;
#342 = CARTESIAN_POINT ( 'NONE',  ( 0.000000000000000000, -1.224714774039625710E-16, 17.65000000000000213 ) ) ;
#343 = EDGE_CURVE ( 'NONE', #60, #26, #239, .T. ) ;
#344 = FACE_OUTER_BOUND ( 'NONE', #136, .T. ) ;
#345 = DIRECTION ( 'NONE',  ( -0.000000000000000000, -6.938893903907226837E-18, 1.000000000000000000 ) ) ;
#346 = COORDINATED_UNIVERSAL_TIME_OFFSET ( 1, 0, .AHEAD. ) ;
#347 = VECTOR ( 'NONE', #268, 1000.000000000000000 ) ;
#348 = ORIENTED_EDGE ( 'NONE', *, *, #49, .T. ) ;
#349 = CARTESIAN_POINT ( 'NONE',  ( 0.000000000000000000, -3.901260626809452958, 16.90000000000000213 ) ) ;
#350 = APPROVAL_DATE_TIME ( #170, #224 ) ;
#351 = CARTESIAN_POINT ( 'NONE',  ( 0.000000000000000000, -1.172673069760321497E-16, 16.90000000000000213 ) ) ;
#352 = CARTESIAN_POINT ( 'NONE',  ( 3.673940397442059868E-16, 3.000000000000000000, 0.000000000000000000 ) ) ;
#353 = CC_DESIGN_PERSON_AND_ORGANIZATION_ASSIGNMENT ( #6, #108, ( #153 ) ) ;
#354 =( NAMED_UNIT ( * ) PLANE_ANGLE_UNIT ( ) SI_UNIT ( $, .RADIAN. ) );
#355 = PLANE ( 'NONE',  #98 ) ;
ENDSEC;
END-ISO-10303-21;
