ISO-10303-21;
HEADER;
FILE_DESCRIPTION (( 'STEP AP203' ),
    '1' );
FILE_NAME ('42352.step',
    '2021-11-01T09:16:17',
    ( '' ),
    ( '' ),
    'SwSTEP 2.0',
    'SolidWorks 2019',
    '' );
FILE_SCHEMA (( 'CONFIG_CONTROL_DESIGN' ));
ENDSEC;

DATA;
#1 = EDGE_CURVE ( 'NONE', #14, #14, #117, .T. ) ;
#2 = ORIENTED_EDGE ( 'NONE', *, *, #1, .T. ) ;
#3 = CC_DESIGN_SECURITY_CLASSIFICATION ( #59, ( #42 ) ) ;
#4 = ORIENTED_EDGE ( 'NONE', *, *, #198, .F. ) ;
#5 = ADVANCED_FACE ( 'NONE', ( #172, #139 ), #156, .T. ) ;
#6 = PERSON_AND_ORGANIZATION_ROLE ( 'design_owner' ) ;
#7 = CC_DESIGN_PERSON_AND_ORGANIZATION_ASSIGNMENT ( #138, #95, ( #118 ) ) ;
#8 = FACE_OUTER_BOUND ( 'NONE', #153, .T. ) ;
#9 = APPLICATION_PROTOCOL_DEFINITION ( 'international standard', 'config_control_design', 1994, #106 ) ;
#10 = PERSON_AND_ORGANIZATION ( #190, #128 ) ;
#11 = DIRECTION ( 'NONE',  ( -3.491481338843133355E-15, 1.224646799147353207E-16, -1.000000000000000000 ) ) ;
#12 =( GEOMETRIC_REPRESENTATION_CONTEXT ( 3 ) GLOBAL_UNCERTAINTY_ASSIGNED_CONTEXT ( ( #217 ) ) GLOBAL_UNIT_ASSIGNED_CONTEXT ( ( #199, #50, #154 ) ) REPRESENTATION_CONTEXT ( 'NONE', 'WORKASPACE' ) );
#13 = DESIGN_CONTEXT ( 'detailed design', #106, 'design' ) ;
#14 = VERTEX_POINT ( 'NONE', #62 ) ;
#15 = CALENDAR_DATE ( 2021, 1, 11 ) ;
#16 = FACE_OUTER_BOUND ( 'NONE', #211, .T. ) ;
#17 = PLANE ( 'NONE',  #188 ) ;
#18 = CONICAL_SURFACE ( 'NONE', #192, 4.000000000000000888, 0.7853981633974410625 ) ;
#19 = DIRECTION ( 'NONE',  ( -3.491481338843133355E-15, 1.224646799147353207E-16, -1.000000000000000000 ) ) ;
#20 = AXIS2_PLACEMENT_3D ( 'NONE', #55, #74, #158 ) ;
#21 = AXIS2_PLACEMENT_3D ( 'NONE', #133, #90, #51 ) ;
#22 = EDGE_LOOP ( 'NONE', ( #86 ) ) ;
#23 = MECHANICAL_CONTEXT ( 'NONE', #97, 'mechanical' ) ;
#24 = AXIS2_PLACEMENT_3D ( 'NONE', #89, #35, #73 ) ;
#25 = FACE_OUTER_BOUND ( 'NONE', #189, .T. ) ;
#26 = DIRECTION ( 'NONE',  ( 3.491481338843133355E-15, -1.226656096638776648E-16, 1.000000000000000000 ) ) ;
#27 = CC_DESIGN_PERSON_AND_ORGANIZATION_ASSIGNMENT ( #10, #209, ( #42 ) ) ;
#28 = DIRECTION ( 'NONE',  ( -3.491481338843133355E-15, 1.224646799147353207E-16, -1.000000000000000000 ) ) ;
#29 = CALENDAR_DATE ( 2021, 1, 11 ) ;
#30 = CARTESIAN_POINT ( 'NONE',  ( -8.551702076470480934E-31, 2.999533309458101739E-32, -2.449304821232125005E-16 ) ) ;
#31 = APPLICATION_PROTOCOL_DEFINITION ( 'international standard', 'config_control_design', 1994, #97 ) ;
#32 = ORIENTED_EDGE ( 'NONE', *, *, #166, .F. ) ;
#33 = AXIS2_PLACEMENT_3D ( 'NONE', #30, #115, #78 ) ;
#34 = CARTESIAN_POINT ( 'NONE',  ( 0.0000000000000000000, 0.0000000000000000000, 0.0000000000000000000 ) ) ;
#35 = DIRECTION ( 'NONE',  ( -3.491481338843133355E-15, 1.224646799147353207E-16, -1.000000000000000000 ) ) ;
#36 = CALENDAR_DATE ( 2021, 1, 11 ) ;
#37 = AXIS2_PLACEMENT_3D ( 'NONE', #179, #26, #76 ) ;
#38 = APPROVAL_ROLE ( '' ) ;
#39 = CARTESIAN_POINT ( 'NONE',  ( 2.513866563967056016E-13, 2.999519565323702626E-32, 72.00000000000000000 ) ) ;
#40 = COORDINATED_UNIVERSAL_TIME_OFFSET ( 1, 0, .AHEAD. ) ;
#41 = VERTEX_POINT ( 'NONE', #96 ) ;
#42 = PRODUCT_DEFINITION_FORMATION_WITH_SPECIFIED_SOURCE ( 'ANY', '', #207, .NOT_KNOWN. ) ;
#43 = DIRECTION ( 'NONE',  ( 3.491481338843133355E-15, -1.226656096638776648E-16, 1.000000000000000000 ) ) ;
#44 = DIRECTION ( 'NONE',  ( 4.275831445896959482E-31, 1.000000000000000000, 1.224646799147353207E-16 ) ) ;
#45 = CLOSED_SHELL ( 'NONE', ( #46, #83, #215, #99 ) ) ;
#46 = ADVANCED_FACE ( 'NONE', ( #206 ), #134, .F. ) ;
#47 = ORIENTED_EDGE ( 'NONE', *, *, #166, .T. ) ;
#48 = EDGE_LOOP ( 'NONE', ( #47 ) ) ;
#49 = CIRCLE ( 'NONE', #208, 4.800000000000002487 ) ;
#50 =( NAMED_UNIT ( * ) PLANE_ANGLE_UNIT ( ) SI_UNIT ( $, .RADIAN. ) );
#51 = DIRECTION ( 'NONE',  ( 1.000000000000000000, 0.0000000000000000000, 0.0000000000000000000 ) ) ;
#52 = ORIENTED_EDGE ( 'NONE', *, *, #1, .F. ) ;
#53 = FACE_OUTER_BOUND ( 'NONE', #85, .T. ) ;
#54 = AXIS2_PLACEMENT_3D ( 'NONE', #107, #92, #105 ) ;
#55 = CARTESIAN_POINT ( 'NONE',  ( 6.633814543801952113E-14, 3.749399456654636904E-32, 19.00000000000000000 ) ) ;
#56 = PERSON_AND_ORGANIZATION ( #190, #128 ) ;
#57 = CC_DESIGN_DATE_AND_TIME_ASSIGNMENT ( #77, #112, ( #118 ) ) ;
#58 = PERSON_AND_ORGANIZATION_ROLE ( 'design_supplier' ) ;
#59 = SECURITY_CLASSIFICATION ( '', '', #125 ) ;
#60 = ORIENTED_EDGE ( 'NONE', *, *, #71, .F. ) ;
#61 = COORDINATED_UNIVERSAL_TIME_OFFSET ( 1, 0, .AHEAD. ) ;
#62 = CARTESIAN_POINT ( 'NONE',  ( 2.478951750578623799E-13, 4.999999999999992006, 70.99999999999998579 ) ) ;
#63 = COORDINATED_UNIVERSAL_TIME_OFFSET ( 1, 0, .AHEAD. ) ;
#64 = ADVANCED_FACE ( 'NONE', ( #124, #8 ), #135, .T. ) ;
#65 = MANIFOLD_SOLID_BREP ( 'Corps-Déplacer/Copier1[1]', #45 ) ;
#66 = PRODUCT_RELATED_PRODUCT_CATEGORY ( 'detail', '', ( #207 ) ) ;
#67 = LOCAL_TIME ( 10, 16, 17.00000000000000000, #61 ) ;
#68 = EDGE_LOOP ( 'NONE', ( #4 ) ) ;
#69 = ORIENTED_EDGE ( 'NONE', *, *, #201, .T. ) ;
#70 = EDGE_LOOP ( 'NONE', ( #69 ) ) ;
#71 = EDGE_CURVE ( 'NONE', #146, #146, #150, .T. ) ;
#72 = CIRCLE ( 'NONE', #149, 4.999999999999994671 ) ;
#73 = DIRECTION ( 'NONE',  ( 0.0000000000000000000, 1.000000000000000000, 0.0000000000000000000 ) ) ;
#74 = DIRECTION ( 'NONE',  ( 3.491481338843133355E-15, -1.224646799147353207E-16, 1.000000000000000000 ) ) ;
#75 = APPROVAL_STATUS ( 'not_yet_approved' ) ;
#76 = DIRECTION ( 'NONE',  ( -4.237045877651918877E-31, -1.000000000000000000, -1.246832498358330099E-16 ) ) ;
#77 = DATE_AND_TIME ( #145, #67 ) ;
#78 = DIRECTION ( 'NONE',  ( -4.275831445896958607E-31, -1.000000000000000000, -1.224646799147353207E-16 ) ) ;
#79 = VERTEX_POINT ( 'NONE', #218 ) ;
#80 = CARTESIAN_POINT ( 'NONE',  ( 6.633814543801952113E-14, -2.326828918379970970E-15, 19.00000000000000000 ) ) ;
#81 = APPROVAL_PERSON_ORGANIZATION ( #111, #142, #141 ) ;
#82 = CARTESIAN_POINT ( 'NONE',  ( 6.982962677686229240E-16, -5.000000000000000000, 0.1999999999999989009 ) ) ;
#83 = ADVANCED_FACE ( 'NONE', ( #53, #25 ), #120, .T. ) ;
#84 = CC_DESIGN_DATE_AND_TIME_ASSIGNMENT ( #123, #109, ( #59 ) ) ;
#85 = EDGE_LOOP ( 'NONE', ( #32 ) ) ;
#86 = ORIENTED_EDGE ( 'NONE', *, *, #137, .F. ) ;
#87 = EDGE_LOOP ( 'NONE', ( #204 ) ) ;
#88 = APPROVAL ( #191, 'UNSPECIFIED' ) ;
#89 = CARTESIAN_POINT ( 'NONE',  ( 2.478951750578623799E-13, -8.694992273946204985E-15, 70.99999999999998579 ) ) ;
#90 = DIRECTION ( 'NONE',  ( 0.0000000000000000000, 0.0000000000000000000, 1.000000000000000000 ) ) ;
#91 = PERSON_AND_ORGANIZATION ( #190, #128 ) ;
#92 = DIRECTION ( 'NONE',  ( -3.491481338843133355E-15, 1.224646799147353207E-16, -1.000000000000000000 ) ) ;
#93 = PERSON_AND_ORGANIZATION ( #190, #128 ) ;
#94 = DIRECTION ( 'NONE',  ( 0.0000000000000000000, 1.000000000000000000, 0.0000000000000000000 ) ) ;
#95 = PERSON_AND_ORGANIZATION_ROLE ( 'creator' ) ;
#96 = CARTESIAN_POINT ( 'NONE',  ( 6.633814543801952113E-14, 4.999999999999992006, 19.00000000000000000 ) ) ;
#97 = APPLICATION_CONTEXT ( 'configuration controlled 3d designs of mechanical parts and assemblies' ) ;
#98 = CARTESIAN_POINT ( 'NONE',  ( 2.513866563967056016E-13, -8.817456953860941711E-15, 72.00000000000000000 ) ) ;
#99 = ADVANCED_FACE ( 'NONE', ( #162 ), #17, .F. ) ;
#100 = LOCAL_TIME ( 10, 16, 17.00000000000000000, #63 ) ;
#101 = APPROVAL_PERSON_ORGANIZATION ( #93, #88, #38 ) ;
#102 = CC_DESIGN_PERSON_AND_ORGANIZATION_ASSIGNMENT ( #212, #58, ( #42 ) ) ;
#103 = AXIS2_PLACEMENT_3D ( 'NONE', #216, #183, #94 ) ;
#104 = DIRECTION ( 'NONE',  ( -3.491481338843133355E-15, 1.224646799147353207E-16, -1.000000000000000000 ) ) ;
#105 = DIRECTION ( 'NONE',  ( 4.275831445896959482E-31, 1.000000000000000000, 1.224646799147353207E-16 ) ) ;
#106 = APPLICATION_CONTEXT ( 'configuration controlled 3d designs of mechanical parts and assemblies' ) ;
#107 = CARTESIAN_POINT ( 'NONE',  ( 0.0000000000000000000, 0.0000000000000000000, 0.0000000000000000000 ) ) ;
#108 = CC_DESIGN_APPROVAL ( #142, ( #42 ) ) ;
#109 = DATE_TIME_ROLE ( 'classification_date' ) ;
#110 = DIRECTION ( 'NONE',  ( 3.491481338843133355E-15, -1.226656096638776648E-16, 1.000000000000000000 ) ) ;
#111 = PERSON_AND_ORGANIZATION ( #190, #128 ) ;
#112 = DATE_TIME_ROLE ( 'creation_date' ) ;
#113 = DIRECTION ( 'NONE',  ( 4.275831445896958607E-31, 1.000000000000000000, 1.224646799147353207E-16 ) ) ;
#114 = AXIS2_PLACEMENT_3D ( 'NONE', #34, #104, #44 ) ;
#115 = DIRECTION ( 'NONE',  ( 3.491481338843133355E-15, -1.224646799147353207E-16, 1.000000000000000000 ) ) ;
#116 = ORIENTED_EDGE ( 'NONE', *, *, #201, .F. ) ;
#117 = CIRCLE ( 'NONE', #24, 5.000000000000000888 ) ;
#118 = PRODUCT_DEFINITION ( 'UNKNOWN', '', #42, #13 ) ;
#119 = PERSON_AND_ORGANIZATION ( #190, #128 ) ;
#120 = CYLINDRICAL_SURFACE ( 'NONE', #114, 4.999999999999997335 ) ;
#121 = CC_DESIGN_PERSON_AND_ORGANIZATION_ASSIGNMENT ( #56, #174, ( #59 ) ) ;
#122 = DATE_AND_TIME ( #214, #205 ) ;
#123 = DATE_AND_TIME ( #15, #165 ) ;
#124 = FACE_BOUND ( 'NONE', #70, .T. ) ;
#125 = SECURITY_CLASSIFICATION_LEVEL ( 'unclassified' ) ;
#126 = PLANE ( 'NONE',  #143 ) ;
#127 = PLANE ( 'NONE',  #33 ) ;
#128 = ORGANIZATION ( 'UNSPECIFIED', 'UNSPECIFIED', '' ) ;
#129 = CARTESIAN_POINT ( 'NONE',  ( 6.633814543801952113E-14, -2.326828918379970970E-15, 19.00000000000000000 ) ) ;
#130 = ADVANCED_BREP_SHAPE_REPRESENTATION ( '42352', ( #65, #140, #21 ), #12 ) ;
#131 = CC_DESIGN_APPROVAL ( #187, ( #118 ) ) ;
#132 = ORIENTED_EDGE ( 'NONE', *, *, #137, .T. ) ;
#133 = CARTESIAN_POINT ( 'NONE',  ( 0.0000000000000000000, 0.0000000000000000000, 0.0000000000000000000 ) ) ;
#134 = PLANE ( 'NONE',  #20 ) ;
#135 = CONICAL_SURFACE ( 'NONE', #37, 5.000000000000000000, 0.7853981633974428389 ) ;
#136 = LOCAL_TIME ( 10, 16, 17.00000000000000000, #157 ) ;
#137 = EDGE_CURVE ( 'NONE', #222, #222, #219, .T. ) ;
#138 = PERSON_AND_ORGANIZATION ( #190, #128 ) ;
#139 = FACE_OUTER_BOUND ( 'NONE', #194, .T. ) ;
#140 = MANIFOLD_SOLID_BREP ( 'Corps-Déplacer/Copier1[2]', #220 ) ;
#141 = APPROVAL_ROLE ( '' ) ;
#142 = APPROVAL ( #196, 'UNSPECIFIED' ) ;
#143 = AXIS2_PLACEMENT_3D ( 'NONE', #200, #163, #144 ) ;
#144 = DIRECTION ( 'NONE',  ( -4.275831445896958607E-31, -1.000000000000000000, -1.224646799147353207E-16 ) ) ;
#145 = CALENDAR_DATE ( 2021, 1, 11 ) ;
#146 = VERTEX_POINT ( 'NONE', #82 ) ;
#147 = APPROVAL_DATE_TIME ( #122, #142 ) ;
#148 = CARTESIAN_POINT ( 'NONE',  ( 6.633814543801952113E-14, 4.999999999999992006, 19.00000000000000000 ) ) ;
#149 = AXIS2_PLACEMENT_3D ( 'NONE', #80, #11, #151 ) ;
#150 = CIRCLE ( 'NONE', #223, 5.000000000000000000 ) ;
#151 = DIRECTION ( 'NONE',  ( 0.0000000000000000000, 1.000000000000000000, 0.0000000000000000000 ) ) ;
#152 = CC_DESIGN_PERSON_AND_ORGANIZATION_ASSIGNMENT ( #119, #6, ( #207 ) ) ;
#153 = EDGE_LOOP ( 'NONE', ( #60 ) ) ;
#154 =( NAMED_UNIT ( * ) SI_UNIT ( $, .STERADIAN. ) SOLID_ANGLE_UNIT ( ) );
#155 = CARTESIAN_POINT ( 'NONE',  ( 6.982962677686249947E-16, -2.453312193277550091E-17, 0.1999999999999995115 ) ) ;
#156 = CYLINDRICAL_SURFACE ( 'NONE', #54, 4.999999999999993783 ) ;
#157 = COORDINATED_UNIVERSAL_TIME_OFFSET ( 1, 0, .AHEAD. ) ;
#158 = DIRECTION ( 'NONE',  ( -4.275831445896958607E-31, -1.000000000000000000, -1.224646799147353207E-16 ) ) ;
#159 = APPROVAL_DATE_TIME ( #210, #187 ) ;
#160 = PRODUCT_DEFINITION_SHAPE ( 'NONE', 'NONE',  #118 ) ;
#161 = COORDINATED_UNIVERSAL_TIME_OFFSET ( 1, 0, .AHEAD. ) ;
#162 = FACE_OUTER_BOUND ( 'NONE', #22, .T. ) ;
#163 = DIRECTION ( 'NONE',  ( 3.491481338843133355E-15, -1.224646799147353207E-16, 1.000000000000000000 ) ) ;
#164 = FACE_BOUND ( 'NONE', #170, .T. ) ;
#165 = LOCAL_TIME ( 10, 16, 17.00000000000000000, #40 ) ;
#166 = EDGE_CURVE ( 'NONE', #197, #197, #72, .T. ) ;
#167 = CC_DESIGN_APPROVAL ( #88, ( #59 ) ) ;
#168 = EDGE_LOOP ( 'NONE', ( #52 ) ) ;
#169 = ADVANCED_FACE ( 'NONE', ( #16 ), #127, .F. ) ;
#170 = EDGE_LOOP ( 'NONE', ( #132 ) ) ;
#171 = CIRCLE ( 'NONE', #175, 4.999999999999994671 ) ;
#172 = FACE_OUTER_BOUND ( 'NONE', #87, .T. ) ;
#173 = ADVANCED_FACE ( 'NONE', ( #184 ), #126, .T. ) ;
#174 = PERSON_AND_ORGANIZATION_ROLE ( 'classification_officer' ) ;
#175 = AXIS2_PLACEMENT_3D ( 'NONE', #129, #221, #181 ) ;
#176 = SHAPE_DEFINITION_REPRESENTATION ( #160, #130 ) ;
#177 = DIRECTION ( 'NONE',  ( -4.237045877651918877E-31, -1.000000000000000000, -1.246832498358330099E-16 ) ) ;
#178 = APPROVAL_ROLE ( '' ) ;
#179 = CARTESIAN_POINT ( 'NONE',  ( 6.982962677686249947E-16, -2.453312193277550091E-17, 0.1999999999999995115 ) ) ;
#180 = APPROVAL_DATE_TIME ( #193, #88 ) ;
#181 = DIRECTION ( 'NONE',  ( 0.0000000000000000000, 1.000000000000000000, 0.0000000000000000000 ) ) ;
#182 = APPROVAL_PERSON_ORGANIZATION ( #91, #187, #178 ) ;
#183 = DIRECTION ( 'NONE',  ( -3.491481338843133355E-15, 1.224646799147353207E-16, -1.000000000000000000 ) ) ;
#184 = FACE_OUTER_BOUND ( 'NONE', #68, .T. ) ;
#185 = DIRECTION ( 'NONE',  ( -4.282846870592449122E-31, -1.000000000000000000, -1.226656096638776401E-16 ) ) ;
#186 = FACE_OUTER_BOUND ( 'NONE', #168, .T. ) ;
#187 = APPROVAL ( #75, 'UNSPECIFIED' ) ;
#188 = AXIS2_PLACEMENT_3D ( 'NONE', #39, #28, #113 ) ;
#189 = EDGE_LOOP ( 'NONE', ( #2 ) ) ;
#190 = PERSON ( 'UNSPECIFIED', 'UNSPECIFIED', 'UNSPECIFIED', ('UNSPECIFIED'), ('UNSPECIFIED'), ('UNSPECIFIED') ) ;
#191 = APPROVAL_STATUS ( 'not_yet_approved' ) ;
#192 = AXIS2_PLACEMENT_3D ( 'NONE', #98, #19, #202 ) ;
#193 = DATE_AND_TIME ( #36, #100 ) ;
#194 = EDGE_LOOP ( 'NONE', ( #203 ) ) ;
#195 = CARTESIAN_POINT ( 'NONE',  ( 2.513866563967056016E-13, 3.999999999999992450, 72.00000000000000000 ) ) ;
#196 = APPROVAL_STATUS ( 'not_yet_approved' ) ;
#197 = VERTEX_POINT ( 'NONE', #148 ) ;
#198 = EDGE_CURVE ( 'NONE', #41, #41, #171, .T. ) ;
#199 =( LENGTH_UNIT ( ) NAMED_UNIT ( * ) SI_UNIT ( .MILLI., .METRE. ) );
#200 = CARTESIAN_POINT ( 'NONE',  ( 6.633814543801952113E-14, 3.749399456654636904E-32, 19.00000000000000000 ) ) ;
#201 = EDGE_CURVE ( 'NONE', #79, #79, #49, .T. ) ;
#202 = DIRECTION ( 'NONE',  ( 0.0000000000000000000, 1.000000000000000000, 0.0000000000000000000 ) ) ;
#203 = ORIENTED_EDGE ( 'NONE', *, *, #71, .T. ) ;
#204 = ORIENTED_EDGE ( 'NONE', *, *, #198, .T. ) ;
#205 = LOCAL_TIME ( 10, 16, 17.00000000000000000, #161 ) ;
#206 = FACE_OUTER_BOUND ( 'NONE', #48, .T. ) ;
#207 = PRODUCT ( '42352', '42352', '', ( #23 ) ) ;
#208 = AXIS2_PLACEMENT_3D ( 'NONE', #213, #43, #185 ) ;
#209 = PERSON_AND_ORGANIZATION_ROLE ( 'creator' ) ;
#210 = DATE_AND_TIME ( #29, #136 ) ;
#211 = EDGE_LOOP ( 'NONE', ( #116 ) ) ;
#212 = PERSON_AND_ORGANIZATION ( #190, #128 ) ;
#213 = CARTESIAN_POINT ( 'NONE',  ( -2.055766497884375859E-30, 4.562602451484485018E-32, -5.887949263866130078E-16 ) ) ;
#214 = CALENDAR_DATE ( 2021, 1, 11 ) ;
#215 = ADVANCED_FACE ( 'NONE', ( #186, #164 ), #18, .T. ) ;
#216 = CARTESIAN_POINT ( 'NONE',  ( 2.513866563967056016E-13, -8.817456953860941711E-15, 72.00000000000000000 ) ) ;
#217 = UNCERTAINTY_MEASURE_WITH_UNIT (LENGTH_MEASURE( 1.000000000000000082E-05 ), #199, 'distance_accuracy_value', 'NONE');
#218 = CARTESIAN_POINT ( 'NONE',  ( -4.111532995768752419E-30, -4.800000000000002487, -1.177589852773226016E-15 ) ) ;
#219 = CIRCLE ( 'NONE', #103, 4.000000000000000888 ) ;
#220 = CLOSED_SHELL ( 'NONE', ( #5, #173, #64, #169 ) ) ;
#221 = DIRECTION ( 'NONE',  ( -3.491481338843133355E-15, 1.224646799147353207E-16, -1.000000000000000000 ) ) ;
#222 = VERTEX_POINT ( 'NONE', #195 ) ;
#223 = AXIS2_PLACEMENT_3D ( 'NONE', #155, #110, #177 ) ;
ENDSEC;
END-ISO-10303-21;
