ISO-10303-21;
HEADER;
FILE_DESCRIPTION (( 'STEP AP203' ),
    '1' );
FILE_NAME ('42341.step',
    '2021-11-01T12:23:30',
    ( '' ),
    ( '' ),
    'SwSTEP 2.0',
    'SolidWorks 2019',
    '' );
FILE_SCHEMA (( 'CONFIG_CONTROL_DESIGN' ));
ENDSEC;

DATA;
#1 = DIRECTION ( 'NONE',  ( 3.491481338843133355E-15, -1.227517819005651059E-16, 1.000000000000000000 ) ) ;
#2 = ORIENTED_EDGE ( 'NONE', *, *, #141, .T. ) ;
#3 = CALENDAR_DATE ( 2021, 1, 11 ) ;
#4 = FACE_OUTER_BOUND ( 'NONE', #204, .T. ) ;
#5 = CARTESIAN_POINT ( 'NONE',  ( -3.206816838010677856E-31, 1.124799933034399755E-32, -9.184688465421452921E-17 ) ) ;
#6 = DIRECTION ( 'NONE',  ( 4.275831445896958607E-31, 1.000000000000000000, 1.224646799147353207E-16 ) ) ;
#7 = FACE_OUTER_BOUND ( 'NONE', #72, .T. ) ;
#8 = EDGE_CURVE ( 'NONE', #148, #148, #121, .T. ) ;
#9 = APPROVAL_ROLE ( '' ) ;
#10 = CARTESIAN_POINT ( 'NONE',  ( 2.793185071074506684E-14, 2.249639673992782580E-32, 8.000000000000000000 ) ) ;
#11 = LOCAL_TIME ( 13, 23, 30.00000000000000000, #34 ) ;
#12 = PERSON_AND_ORGANIZATION_ROLE ( 'creator' ) ;
#13 = CIRCLE ( 'NONE', #163, 1.999999999999997335 ) ;
#14 = APPROVAL_ROLE ( '' ) ;
#15 = CC_DESIGN_DATE_AND_TIME_ASSIGNMENT ( #122, #136, ( #125 ) ) ;
#16 = APPROVAL_ROLE ( '' ) ;
#17 = CIRCLE ( 'NONE', #184, 1.999999999999999112 ) ;
#18 = PERSON_AND_ORGANIZATION ( #92, #61 ) ;
#19 = ADVANCED_FACE ( 'NONE', ( #64, #130 ), #71, .T. ) ;
#20 = PERSON_AND_ORGANIZATION ( #92, #61 ) ;
#21 = ORIENTED_EDGE ( 'NONE', *, *, #218, .F. ) ;
#22 = CIRCLE ( 'NONE', #118, 3.000000000000002665 ) ;
#23 = EDGE_CURVE ( 'NONE', #65, #65, #145, .T. ) ;
#24 = ORIENTED_EDGE ( 'NONE', *, *, #158, .T. ) ;
#25 = TOROIDAL_SURFACE ( 'NONE', #222, 10.00000000000000000, 8.000000000000000000 ) ;
#26 = ADVANCED_FACE ( 'NONE', ( #129 ), #210, .F. ) ;
#27 = FACE_OUTER_BOUND ( 'NONE', #106, .T. ) ;
#28 = PLANE ( 'NONE',  #97 ) ;
#29 = AXIS2_PLACEMENT_3D ( 'NONE', #116, #78, #146 ) ;
#30 = CARTESIAN_POINT ( 'NONE',  ( 2.793185071074506053E-14, -1.999999999999998224, 7.999999999999998224 ) ) ;
#31 = DIRECTION ( 'NONE',  ( -3.491481338843133355E-15, 1.224646799147353207E-16, -1.000000000000000000 ) ) ;
#32 = AXIS2_PLACEMENT_3D ( 'NONE', #200, #135, #54 ) ;
#33 = VERTEX_POINT ( 'NONE', #168 ) ;
#34 = COORDINATED_UNIVERSAL_TIME_OFFSET ( 1, 0, .AHEAD. ) ;
#35 = CALENDAR_DATE ( 2021, 1, 11 ) ;
#36 = APPROVAL_PERSON_ORGANIZATION ( #151, #41, #14 ) ;
#37 = PERSON_AND_ORGANIZATION ( #92, #61 ) ;
#38 = EDGE_LOOP ( 'NONE', ( #138 ) ) ;
#39 = AXIS2_PLACEMENT_3D ( 'NONE', #5, #63, #76 ) ;
#40 = ORIENTED_EDGE ( 'NONE', *, *, #23, .T. ) ;
#41 = APPROVAL ( #196, 'UNSPECIFIED' ) ;
#42 = DIRECTION ( 'NONE',  ( -4.285855558155652404E-31, -1.000000000000000000, -1.227517819005651059E-16 ) ) ;
#43 = CALENDAR_DATE ( 2021, 1, 11 ) ;
#44 = DIRECTION ( 'NONE',  ( -3.491481338843133355E-15, 1.224646799147353207E-16, -1.000000000000000000 ) ) ;
#45 = DIRECTION ( 'NONE',  ( 3.491481338843133355E-15, -1.227517819005651059E-16, 1.000000000000000000 ) ) ;
#46 = DIRECTION ( 'NONE',  ( -4.275831445896958607E-31, -1.000000000000000000, -1.224646799147353207E-16 ) ) ;
#47 = FACE_OUTER_BOUND ( 'NONE', #187, .T. ) ;
#48 = SECURITY_CLASSIFICATION_LEVEL ( 'unclassified' ) ;
#49 = APPROVAL_PERSON_ORGANIZATION ( #186, #215, #16 ) ;
#50 = PERSON_AND_ORGANIZATION_ROLE ( 'design_owner' ) ;
#51 = DATE_AND_TIME ( #185, #173 ) ;
#52 = EDGE_CURVE ( 'NONE', #147, #147, #188, .T. ) ;
#53 = ADVANCED_BREP_SHAPE_REPRESENTATION ( '42341', ( #157, #88, #32 ), #149 ) ;
#54 = DIRECTION ( 'NONE',  ( 1.000000000000000000, 0.0000000000000000000, 0.0000000000000000000 ) ) ;
#55 = LOCAL_TIME ( 13, 23, 30.00000000000000000, #201 ) ;
#56 = PERSON_AND_ORGANIZATION_ROLE ( 'classification_officer' ) ;
#57 = EDGE_LOOP ( 'NONE', ( #140 ) ) ;
#58 = AXIS2_PLACEMENT_3D ( 'NONE', #177, #132, #98 ) ;
#59 = PERSON_AND_ORGANIZATION ( #92, #61 ) ;
#60 = DIRECTION ( 'NONE',  ( 0.0000000000000000000, -1.000000000000000000, 0.0000000000000000000 ) ) ;
#61 = ORGANIZATION ( 'UNSPECIFIED', 'UNSPECIFIED', '' ) ;
#62 = DIRECTION ( 'NONE',  ( 3.491481338843133355E-15, -1.227517819005651059E-16, 1.000000000000000000 ) ) ;
#63 = DIRECTION ( 'NONE',  ( 3.491481338843133355E-15, -1.224646799147353207E-16, 1.000000000000000000 ) ) ;
#64 = FACE_OUTER_BOUND ( 'NONE', #206, .T. ) ;
#65 = VERTEX_POINT ( 'NONE', #80 ) ;
#66 = VERTEX_POINT ( 'NONE', #134 ) ;
#67 = CC_DESIGN_APPROVAL ( #41, ( #77 ) ) ;
#68 = CARTESIAN_POINT ( 'NONE',  ( 1.990144363140586139E-13, 2.599999999999995648, 57.00000000000000000 ) ) ;
#69 = PERSON_AND_ORGANIZATION_ROLE ( 'creator' ) ;
#70 = DATE_AND_TIME ( #169, #11 ) ;
#71 = CONICAL_SURFACE ( 'NONE', #205, 2.600000000000002309, 0.7853981633974516097 ) ;
#72 = EDGE_LOOP ( 'NONE', ( #89 ) ) ;
#73 = CC_DESIGN_SECURITY_CLASSIFICATION ( #152, ( #77 ) ) ;
#74 = ORIENTED_EDGE ( 'NONE', *, *, #52, .T. ) ;
#75 = PLANE ( 'NONE',  #103 ) ;
#76 = DIRECTION ( 'NONE',  ( -4.275831445896958607E-31, -1.000000000000000000, -1.224646799147353207E-16 ) ) ;
#77 = PRODUCT_DEFINITION_FORMATION_WITH_SPECIFIED_SOURCE ( 'ANY', '', #96, .NOT_KNOWN. ) ;
#78 = DIRECTION ( 'NONE',  ( 3.491481338843133355E-15, -1.227517819005651059E-16, 1.000000000000000000 ) ) ;
#79 = APPROVAL ( #99, 'UNSPECIFIED' ) ;
#80 = CARTESIAN_POINT ( 'NONE',  ( 4.145429978967848551E-14, 2.999999999999997335, 11.87298334620741436 ) ) ;
#81 = DIRECTION ( 'NONE',  ( -3.491481338843133355E-15, 1.224646799147353207E-16, -1.000000000000000000 ) ) ;
#82 = APPLICATION_CONTEXT ( 'configuration controlled 3d designs of mechanical parts and assemblies' ) ;
#83 = PERSON_AND_ORGANIZATION ( #92, #61 ) ;
#84 = APPROVAL_DATE_TIME ( #70, #41 ) ;
#85 = APPROVAL_DATE_TIME ( #51, #215 ) ;
#86 = CC_DESIGN_PERSON_AND_ORGANIZATION_ASSIGNMENT ( #153, #69, ( #125 ) ) ;
#87 = COORDINATED_UNIVERSAL_TIME_OFFSET ( 1, 0, .AHEAD. ) ;
#88 = MANIFOLD_SOLID_BREP ( 'Corps-Déplacer/Copier1[2]', #181 ) ;
#89 = ORIENTED_EDGE ( 'NONE', *, *, #8, .F. ) ;
#90 = EDGE_LOOP ( 'NONE', ( #40 ) ) ;
#91 = AXIS2_PLACEMENT_3D ( 'NONE', #208, #111, #192 ) ;
#92 = PERSON ( 'UNSPECIFIED', 'UNSPECIFIED', 'UNSPECIFIED', ('UNSPECIFIED'), ('UNSPECIFIED'), ('UNSPECIFIED') ) ;
#93 = EDGE_LOOP ( 'NONE', ( #24 ) ) ;
#94 = CARTESIAN_POINT ( 'NONE',  ( 1.990144363140586139E-13, -6.980486755139912911E-15, 57.00000000000000000 ) ) ;
#95 = FACE_OUTER_BOUND ( 'NONE', #90, .T. ) ;
#96 = PRODUCT ( '42341', '42341', '', ( #219 ) ) ;
#97 = AXIS2_PLACEMENT_3D ( 'NONE', #10, #183, #46 ) ;
#98 = DIRECTION ( 'NONE',  ( 0.0000000000000000000, 1.000000000000000000, 0.0000000000000000000 ) ) ;
#99 = APPROVAL_STATUS ( 'not_yet_approved' ) ;
#100 = CARTESIAN_POINT ( 'NONE',  ( 1.976178437785213605E-13, -6.931500883174019483E-15, 56.60000000000000142 ) ) ;
#101 = ADVANCED_FACE ( 'NONE', ( #144 ), #28, .T. ) ;
#102 = CARTESIAN_POINT ( 'NONE',  ( 2.793185071074506053E-14, -1.734723475976807094E-15, 7.999999999999998224 ) ) ;
#103 = AXIS2_PLACEMENT_3D ( 'NONE', #165, #81, #6 ) ;
#104 = AXIS2_PLACEMENT_3D ( 'NONE', #182, #31, #162 ) ;
#105 = CARTESIAN_POINT ( 'NONE',  ( 1.976178437785213605E-13, 2.999999999999995559, 56.60000000000000142 ) ) ;
#106 = EDGE_LOOP ( 'NONE', ( #155 ) ) ;
#107 = CC_DESIGN_PERSON_AND_ORGANIZATION_ASSIGNMENT ( #83, #214, ( #77 ) ) ;
#108 = CC_DESIGN_APPROVAL ( #215, ( #125 ) ) ;
#109 = AXIS2_PLACEMENT_3D ( 'NONE', #203, #1, #211 ) ;
#110 = DIRECTION ( 'NONE',  ( -4.344867323496230065E-31, -1.000000000000000000, -1.227517819005651059E-16 ) ) ;
#111 = DIRECTION ( 'NONE',  ( 3.491481338843133355E-15, -1.224646799147353207E-16, 1.000000000000000000 ) ) ;
#112 = FACE_OUTER_BOUND ( 'NONE', #223, .T. ) ;
#113 = AXIS2_PLACEMENT_3D ( 'NONE', #94, #161, #190 ) ;
#114 = FACE_OUTER_BOUND ( 'NONE', #38, .T. ) ;
#115 = DESIGN_CONTEXT ( 'detailed design', #82, 'design' ) ;
#116 = CARTESIAN_POINT ( 'NONE',  ( -6.413731847436034514E-31, 0.0000000000000000000, -1.836965810494968570E-16 ) ) ;
#117 =( LENGTH_UNIT ( ) NAMED_UNIT ( * ) SI_UNIT ( .MILLI., .METRE. ) );
#118 = AXIS2_PLACEMENT_3D ( 'NONE', #100, #180, #178 ) ;
#119 = APPROVAL_STATUS ( 'not_yet_approved' ) ;
#120 = APPLICATION_CONTEXT ( 'configuration controlled 3d designs of mechanical parts and assemblies' ) ;
#121 = CIRCLE ( 'NONE', #109, 1.999999999999997335 ) ;
#122 = DATE_AND_TIME ( #35, #55 ) ;
#123 = COORDINATED_UNIVERSAL_TIME_OFFSET ( 1, 0, .AHEAD. ) ;
#124 = ORIENTED_EDGE ( 'NONE', *, *, #158, .F. ) ;
#125 = PRODUCT_DEFINITION ( 'UNKNOWN', '', #77, #115 ) ;
#126 = ADVANCED_FACE ( 'NONE', ( #189, #27 ), #133, .T. ) ;
#127 = DIRECTION ( 'NONE',  ( 0.0000000000000000000, 1.000000000000000000, 0.0000000000000000000 ) ) ;
#128 = APPROVAL_PERSON_ORGANIZATION ( #59, #79, #9 ) ;
#129 = FACE_OUTER_BOUND ( 'NONE', #142, .T. ) ;
#130 = FACE_BOUND ( 'NONE', #175, .T. ) ;
#131 = ADVANCED_FACE ( 'NONE', ( #4 ), #209, .F. ) ;
#132 = DIRECTION ( 'NONE',  ( -3.491481338843133355E-15, 1.227517819005651059E-16, -1.000000000000000000 ) ) ;
#133 = CYLINDRICAL_SURFACE ( 'NONE', #104, 2.999999999999999556 ) ;
#134 = CARTESIAN_POINT ( 'NONE',  ( 2.793185071074506053E-14, -1.999999999999998224, 7.999999999999998224 ) ) ;
#135 = DIRECTION ( 'NONE',  ( 0.0000000000000000000, 0.0000000000000000000, 1.000000000000000000 ) ) ;
#136 = DATE_TIME_ROLE ( 'creation_date' ) ;
#137 = LOCAL_TIME ( 13, 23, 30.00000000000000000, #123 ) ;
#138 = ORIENTED_EDGE ( 'NONE', *, *, #52, .F. ) ;
#139 = ORIENTED_EDGE ( 'NONE', *, *, #218, .T. ) ;
#140 = ORIENTED_EDGE ( 'NONE', *, *, #8, .T. ) ;
#141 = EDGE_CURVE ( 'NONE', #33, #33, #17, .T. ) ;
#142 = EDGE_LOOP ( 'NONE', ( #21 ) ) ;
#143 = CARTESIAN_POINT ( 'NONE',  ( 2.793185071074506053E-14, -9.820142552045206497E-16, 7.999999999999998224 ) ) ;
#144 = FACE_OUTER_BOUND ( 'NONE', #57, .T. ) ;
#145 = CIRCLE ( 'NONE', #58, 2.999999999999999556 ) ;
#146 = DIRECTION ( 'NONE',  ( -4.285855558155653280E-31, -1.000000000000000000, -1.227517819005651059E-16 ) ) ;
#147 = VERTEX_POINT ( 'NONE', #68 ) ;
#148 = VERTEX_POINT ( 'NONE', #30 ) ;
#149 =( GEOMETRIC_REPRESENTATION_CONTEXT ( 3 ) GLOBAL_UNCERTAINTY_ASSIGNED_CONTEXT ( ( #160 ) ) GLOBAL_UNIT_ASSIGNED_CONTEXT ( ( #117, #198, #217 ) ) REPRESENTATION_CONTEXT ( 'NONE', 'WORKASPACE' ) );
#150 = APPROVAL_DATE_TIME ( #207, #79 ) ;
#151 = PERSON_AND_ORGANIZATION ( #92, #61 ) ;
#152 = SECURITY_CLASSIFICATION ( '', '', #48 ) ;
#153 = PERSON_AND_ORGANIZATION ( #92, #61 ) ;
#154 = CC_DESIGN_PERSON_AND_ORGANIZATION_ASSIGNMENT ( #37, #12, ( #77 ) ) ;
#155 = ORIENTED_EDGE ( 'NONE', *, *, #23, .F. ) ;
#156 = CC_DESIGN_APPROVAL ( #79, ( #152 ) ) ;
#157 = MANIFOLD_SOLID_BREP ( 'Corps-Déplacer/Copier1[1]', #213 ) ;
#158 = EDGE_CURVE ( 'NONE', #202, #202, #22, .T. ) ;
#159 = ORIENTED_EDGE ( 'NONE', *, *, #141, .F. ) ;
#160 = UNCERTAINTY_MEASURE_WITH_UNIT (LENGTH_MEASURE( 1.000000000000000082E-05 ), #117, 'distance_accuracy_value', 'NONE');
#161 = DIRECTION ( 'NONE',  ( -3.491481338843133355E-15, 1.224646799147353207E-16, -1.000000000000000000 ) ) ;
#162 = DIRECTION ( 'NONE',  ( 4.275831445896959482E-31, 1.000000000000000000, 1.224646799147353207E-16 ) ) ;
#163 = AXIS2_PLACEMENT_3D ( 'NONE', #143, #45, #60 ) ;
#164 = CARTESIAN_POINT ( 'NONE',  ( 1.990144363140586139E-13, -6.980486755139912911E-15, 57.00000000000000000 ) ) ;
#165 = CARTESIAN_POINT ( 'NONE',  ( 1.990144363140586139E-13, 1.949687717460406406E-32, 57.00000000000000000 ) ) ;
#166 = ADVANCED_FACE ( 'NONE', ( #47, #95 ), #25, .F. ) ;
#167 = PRODUCT_RELATED_PRODUCT_CATEGORY ( 'detail', '', ( #96 ) ) ;
#168 = CARTESIAN_POINT ( 'NONE',  ( -1.714342223262260611E-30, -1.999999999999999112, -4.910071276022602262E-16 ) ) ;
#169 = CALENDAR_DATE ( 2021, 1, 11 ) ;
#170 = APPLICATION_PROTOCOL_DEFINITION ( 'international standard', 'config_control_design', 1994, #82 ) ;
#171 = CC_DESIGN_PERSON_AND_ORGANIZATION_ASSIGNMENT ( #20, #56, ( #152 ) ) ;
#172 = ADVANCED_FACE ( 'NONE', ( #114 ), #75, .F. ) ;
#173 = LOCAL_TIME ( 13, 23, 30.00000000000000000, #87 ) ;
#174 = CC_DESIGN_PERSON_AND_ORGANIZATION_ASSIGNMENT ( #18, #50, ( #96 ) ) ;
#175 = EDGE_LOOP ( 'NONE', ( #74 ) ) ;
#176 = COORDINATED_UNIVERSAL_TIME_OFFSET ( 1, 0, .AHEAD. ) ;
#177 = CARTESIAN_POINT ( 'NONE',  ( 4.145429978967848551E-14, -2.210139082994980462E-15, 11.87298334620741436 ) ) ;
#178 = DIRECTION ( 'NONE',  ( 0.0000000000000000000, 1.000000000000000000, 0.0000000000000000000 ) ) ;
#179 = DATE_AND_TIME ( #43, #137 ) ;
#180 = DIRECTION ( 'NONE',  ( -3.491481338843133355E-15, 1.224646799147353207E-16, -1.000000000000000000 ) ) ;
#181 = CLOSED_SHELL ( 'NONE', ( #101, #221, #131 ) ) ;
#182 = CARTESIAN_POINT ( 'NONE',  ( 0.0000000000000000000, 0.0000000000000000000, 0.0000000000000000000 ) ) ;
#183 = DIRECTION ( 'NONE',  ( 3.491481338843133355E-15, -1.224646799147353207E-16, 1.000000000000000000 ) ) ;
#184 = AXIS2_PLACEMENT_3D ( 'NONE', #195, #62, #42 ) ;
#185 = CALENDAR_DATE ( 2021, 1, 11 ) ;
#186 = PERSON_AND_ORGANIZATION ( #92, #61 ) ;
#187 = EDGE_LOOP ( 'NONE', ( #139 ) ) ;
#188 = CIRCLE ( 'NONE', #113, 2.600000000000002309 ) ;
#189 = FACE_OUTER_BOUND ( 'NONE', #93, .T. ) ;
#190 = DIRECTION ( 'NONE',  ( 0.0000000000000000000, 1.000000000000000000, 0.0000000000000000000 ) ) ;
#191 = CC_DESIGN_DATE_AND_TIME_ASSIGNMENT ( #179, #193, ( #152 ) ) ;
#192 = DIRECTION ( 'NONE',  ( -4.275831445896958607E-31, -1.000000000000000000, -1.224646799147353207E-16 ) ) ;
#193 = DATE_TIME_ROLE ( 'classification_date' ) ;
#194 = DIRECTION ( 'NONE',  ( 3.491481338843133355E-15, -1.227517819005651059E-16, 1.000000000000000000 ) ) ;
#195 = CARTESIAN_POINT ( 'NONE',  ( -8.571711116311304807E-31, 7.586917266660477190E-33, -2.455035638011301131E-16 ) ) ;
#196 = APPROVAL_STATUS ( 'not_yet_approved' ) ;
#197 = SHAPE_DEFINITION_REPRESENTATION ( #216, #53 ) ;
#198 =( NAMED_UNIT ( * ) PLANE_ANGLE_UNIT ( ) SI_UNIT ( $, .RADIAN. ) );
#199 = LOCAL_TIME ( 13, 23, 30.00000000000000000, #176 ) ;
#200 = CARTESIAN_POINT ( 'NONE',  ( 0.0000000000000000000, 0.0000000000000000000, 0.0000000000000000000 ) ) ;
#201 = COORDINATED_UNIVERSAL_TIME_OFFSET ( 1, 0, .AHEAD. ) ;
#202 = VERTEX_POINT ( 'NONE', #105 ) ;
#203 = CARTESIAN_POINT ( 'NONE',  ( 2.793185071074506053E-14, -9.820142552045206497E-16, 7.999999999999998224 ) ) ;
#204 = EDGE_LOOP ( 'NONE', ( #159 ) ) ;
#205 = AXIS2_PLACEMENT_3D ( 'NONE', #164, #44, #127 ) ;
#206 = EDGE_LOOP ( 'NONE', ( #124 ) ) ;
#207 = DATE_AND_TIME ( #3, #199 ) ;
#208 = CARTESIAN_POINT ( 'NONE',  ( 2.793185071074506684E-14, 2.249639673992782580E-32, 8.000000000000000000 ) ) ;
#209 = PLANE ( 'NONE',  #39 ) ;
#210 = PLANE ( 'NONE',  #91 ) ;
#211 = DIRECTION ( 'NONE',  ( 0.0000000000000000000, -1.000000000000000000, 0.0000000000000000000 ) ) ;
#212 = CYLINDRICAL_SURFACE ( 'NONE', #29, 1.999999999999998224 ) ;
#213 = CLOSED_SHELL ( 'NONE', ( #126, #19, #172, #166, #26 ) ) ;
#214 = PERSON_AND_ORGANIZATION_ROLE ( 'design_supplier' ) ;
#215 = APPROVAL ( #119, 'UNSPECIFIED' ) ;
#216 = PRODUCT_DEFINITION_SHAPE ( 'NONE', 'NONE',  #125 ) ;
#217 =( NAMED_UNIT ( * ) SI_UNIT ( $, .STERADIAN. ) SOLID_ANGLE_UNIT ( ) );
#218 = EDGE_CURVE ( 'NONE', #66, #66, #13, .T. ) ;
#219 = MECHANICAL_CONTEXT ( 'NONE', #120, 'mechanical' ) ;
#220 = APPLICATION_PROTOCOL_DEFINITION ( 'international standard', 'config_control_design', 1994, #120 ) ;
#221 = ADVANCED_FACE ( 'NONE', ( #112, #7 ), #212, .T. ) ;
#222 = AXIS2_PLACEMENT_3D ( 'NONE', #102, #194, #110 ) ;
#223 = EDGE_LOOP ( 'NONE', ( #2 ) ) ;
ENDSEC;
END-ISO-10303-21;
