ISO-10303-21;
HEADER;
FILE_DESCRIPTION (( 'STEP AP203' ),
    '1' );
FILE_NAME ('42340.step',
    '2021-09-03T07:22:24',
    ( '' ),
    ( '' ),
    'SwSTEP 2.0',
    'SolidWorks 2019',
    '' );
FILE_SCHEMA (( 'CONFIG_CONTROL_DESIGN' ));
ENDSEC;

DATA;
#1 = ORIENTED_EDGE ( 'NONE', *, *, #110, .T. ) ;
#2 = COORDINATED_UNIVERSAL_TIME_OFFSET ( 1, 0, .AHEAD. ) ;
#3 = FACE_OUTER_BOUND ( 'NONE', #69, .T. ) ;
#4 = VERTEX_POINT ( 'NONE', #89 ) ;
#5 = CIRCLE ( 'NONE', #237, 2.099999999999996980 ) ;
#6 = ORIENTED_EDGE ( 'NONE', *, *, #149, .T. ) ;
#7 = COORDINATED_UNIVERSAL_TIME_OFFSET ( 1, 0, .AHEAD. ) ;
#8 = APPROVAL ( #155, 'UNSPECIFIED' ) ;
#9 = PERSON_AND_ORGANIZATION ( #243, #200 ) ;
#10 = AXIS2_PLACEMENT_3D ( 'NONE', #177, #96, #128 ) ;
#11 = LINE ( 'NONE', #118, #130 ) ;
#12 = DIRECTION ( 'NONE',  ( 0.0000000000000000000, 1.000000000000000000, 0.0000000000000000000 ) ) ;
#13 = DIRECTION ( 'NONE',  ( 1.903218546456022717E-15, 0.8571673007021097801, 0.5150380749100585964 ) ) ;
#14 = AXIS2_PLACEMENT_3D ( 'NONE', #40, #17, #284 ) ;
#15 = CARTESIAN_POINT ( 'NONE',  ( 5.935518276033326704E-14, 2.099999999999994760, 17.00000000000000000 ) ) ;
#16 = EDGE_CURVE ( 'NONE', #163, #244, #32, .T. ) ;
#17 = DIRECTION ( 'NONE',  ( -3.491481338843133355E-15, 1.224646799147353207E-16, -1.000000000000000000 ) ) ;
#18 = AXIS2_PLACEMENT_3D ( 'NONE', #337, #207, #156 ) ;
#19 = VECTOR ( 'NONE', #261, 1000.000000000000000 ) ;
#20 = DIRECTION ( 'NONE',  ( 3.491481338843133355E-15, -1.224646799147353207E-16, 1.000000000000000000 ) ) ;
#21 = APPROVAL ( #133, 'UNSPECIFIED' ) ;
#22 = AXIS2_PLACEMENT_3D ( 'NONE', #262, #324, #54 ) ;
#23 = CC_DESIGN_SECURITY_CLASSIFICATION ( #116, ( #291 ) ) ;
#24 = ORIENTED_EDGE ( 'NONE', *, *, #231, .F. ) ;
#25 = SECURITY_CLASSIFICATION_LEVEL ( 'unclassified' ) ;
#26 = ADVANCED_FACE ( 'NONE', ( #228 ), #280, .T. ) ;
#27 = LOCAL_TIME ( 9, 22, 24.00000000000000000, #107 ) ;
#28 = APPLICATION_PROTOCOL_DEFINITION ( 'international standard', 'config_control_design', 1994, #127 ) ;
#29 = LINE ( 'NONE', #60, #214 ) ;
#30 = EDGE_LOOP ( 'NONE', ( #234, #1, #328, #94 ) ) ;
#31 = ORIENTED_EDGE ( 'NONE', *, *, #307, .T. ) ;
#32 = CIRCLE ( 'NONE', #173, 2.099999999999994760 ) ;
#33 = ORIENTED_EDGE ( 'NONE', *, *, #190, .F. ) ;
#34 = ORIENTED_EDGE ( 'NONE', *, *, #267, .F. ) ;
#35 = CIRCLE ( 'NONE', #302, 1.600000000000001421 ) ;
#36 = EDGE_LOOP ( 'NONE', ( #87, #6 ) ) ;
#37 = EDGE_CURVE ( 'NONE', #172, #163, #129, .T. ) ;
#38 = CARTESIAN_POINT ( 'NONE',  ( 5.935518276033326704E-14, -2.081899558550500280E-15, 17.00000000000000000 ) ) ;
#39 = DIRECTION ( 'NONE',  ( 3.491481338843133355E-15, -1.224646799147353207E-16, 1.000000000000000000 ) ) ;
#40 = CARTESIAN_POINT ( 'NONE',  ( 5.935518276033326704E-14, -2.081899558550500280E-15, 17.00000000000000000 ) ) ;
#41 = CARTESIAN_POINT ( 'NONE',  ( 1.920314736363723472E-13, 1.599999999999994760, 55.00000000000000000 ) ) ;
#42 = CYLINDRICAL_SURFACE ( 'NONE', #10, 2.099999999999999201 ) ;
#43 = VECTOR ( 'NONE', #148, 1000.000000000000000 ) ;
#44 = LOCAL_TIME ( 9, 22, 24.00000000000000000, #239 ) ;
#45 = EDGE_CURVE ( 'NONE', #120, #4, #306, .T. ) ;
#46 = CARTESIAN_POINT ( 'NONE',  ( 1.920314736363723472E-13, -6.735557395310442615E-15, 55.00000000000000000 ) ) ;
#47 = DIRECTION ( 'NONE',  ( 4.275831445896958607E-31, 1.000000000000000000, 1.224646799147352961E-16 ) ) ;
#48 = LOCAL_TIME ( 9, 22, 24.00000000000000000, #7 ) ;
#49 = PERSON_AND_ORGANIZATION ( #243, #200 ) ;
#50 = EDGE_LOOP ( 'NONE', ( #55, #247, #198, #320 ) ) ;
#51 = EDGE_LOOP ( 'NONE', ( #154, #74, #327 ) ) ;
#52 = CC_DESIGN_PERSON_AND_ORGANIZATION_ASSIGNMENT ( #189, #187, ( #116 ) ) ;
#53 = AXIS2_PLACEMENT_3D ( 'NONE', #75, #86, #159 ) ;
#54 = DIRECTION ( 'NONE',  ( -4.275831445896958607E-31, -1.000000000000000000, -1.224646799147353207E-16 ) ) ;
#55 = ORIENTED_EDGE ( 'NONE', *, *, #294, .T. ) ;
#56 = CALENDAR_DATE ( 2021, 3, 9 ) ;
#57 = PERSON_AND_ORGANIZATION ( #243, #200 ) ;
#58 = FACE_OUTER_BOUND ( 'NONE', #36, .T. ) ;
#59 = DESIGN_CONTEXT ( 'detailed design', #127, 'design' ) ;
#60 = CARTESIAN_POINT ( 'NONE',  ( 4.662752468839947533E-15, 2.099999999999994760, 1.261807299957887540 ) ) ;
#61 = AXIS2_PLACEMENT_3D ( 'NONE', #314, #79, #134 ) ;
#62 = CARTESIAN_POINT ( 'NONE',  ( 5.935518276033326704E-14, 1.574747771794945014E-32, 17.00000000000000000 ) ) ;
#63 = DIRECTION ( 'NONE',  ( -3.491481338843133355E-15, 1.224646799147353207E-16, -1.000000000000000000 ) ) ;
#64 = DIRECTION ( 'NONE',  ( 1.000000000000000000, 0.0000000000000000000, 0.0000000000000000000 ) ) ;
#65 = EDGE_CURVE ( 'NONE', #131, #286, #5, .T. ) ;
#66 = EDGE_LOOP ( 'NONE', ( #264, #147, #76, #34 ) ) ;
#67 = COORDINATED_UNIVERSAL_TIME_OFFSET ( 1, 0, .AHEAD. ) ;
#68 = LINE ( 'NONE', #183, #194 ) ;
#69 = EDGE_LOOP ( 'NONE', ( #24, #272, #31 ) ) ;
#70 = ADVANCED_FACE ( 'NONE', ( #201 ), #97, .T. ) ;
#71 = DIRECTION ( 'NONE',  ( -3.491481338843133355E-15, 1.224646799147353207E-16, -1.000000000000000000 ) ) ;
#72 = CLOSED_SHELL ( 'NONE', ( #309, #137, #263, #26, #70, #319 ) ) ;
#73 = AXIS2_PLACEMENT_3D ( 'NONE', #242, #295, #141 ) ;
#74 = ORIENTED_EDGE ( 'NONE', *, *, #231, .T. ) ;
#75 = CARTESIAN_POINT ( 'NONE',  ( 4.405576641019003091E-15, -1.545268271034190857E-16, 1.261807299957887318 ) ) ;
#76 = ORIENTED_EDGE ( 'NONE', *, *, #65, .F. ) ;
#77 = PRODUCT ( '42340', '42340', '', ( #85 ) ) ;
#78 = DATE_AND_TIME ( #315, #318 ) ;
#79 = DIRECTION ( 'NONE',  ( -3.491481338843133355E-15, 1.224646799147353207E-16, -1.000000000000000000 ) ) ;
#80 = ADVANCED_FACE ( 'NONE', ( #3 ), #139, .T. ) ;
#81 = CYLINDRICAL_SURFACE ( 'NONE', #213, 2.099999999999996092 ) ;
#82 = DIRECTION ( 'NONE',  ( 3.491481338843133355E-15, -1.224646799147353207E-16, 1.000000000000000000 ) ) ;
#83 = ORIENTED_EDGE ( 'NONE', *, *, #45, .T. ) ;
#84 =( GEOMETRIC_REPRESENTATION_CONTEXT ( 3 ) GLOBAL_UNCERTAINTY_ASSIGNED_CONTEXT ( ( #104 ) ) GLOBAL_UNIT_ASSIGNED_CONTEXT ( ( #249, #197, #255 ) ) REPRESENTATION_CONTEXT ( 'NONE', 'WORKASPACE' ) );
#85 = MECHANICAL_CONTEXT ( 'NONE', #206, 'mechanical' ) ;
#86 = DIRECTION ( 'NONE',  ( -3.491481338843133355E-15, 1.224646799147353207E-16, -1.000000000000000000 ) ) ;
#87 = ORIENTED_EDGE ( 'NONE', *, *, #65, .T. ) ;
#88 = EDGE_CURVE ( 'NONE', #136, #120, #287, .T. ) ;
#89 = CARTESIAN_POINT ( 'NONE',  ( 1.902857329669507868E-13, 2.099999999999994760, 54.50000000000000711 ) ) ;
#90 = ORIENTED_EDGE ( 'NONE', *, *, #307, .F. ) ;
#91 = PERSON_AND_ORGANIZATION_ROLE ( 'design_owner' ) ;
#92 = CC_DESIGN_PERSON_AND_ORGANIZATION_ASSIGNMENT ( #9, #140, ( #330 ) ) ;
#93 = LINE ( 'NONE', #218, #325 ) ;
#94 = ORIENTED_EDGE ( 'NONE', *, *, #37, .F. ) ;
#95 = ORIENTED_EDGE ( 'NONE', *, *, #151, .F. ) ;
#96 = DIRECTION ( 'NONE',  ( -3.491481338843133355E-15, 1.224646799147353207E-16, -1.000000000000000000 ) ) ;
#97 = CONICAL_SURFACE ( 'NONE', #166, 1.600000000000001421, 0.7853981633974547183 ) ;
#98 = DIRECTION ( 'NONE',  ( 4.275831445896958607E-31, 1.000000000000000000, 1.224646799147353207E-16 ) ) ;
#99 = CIRCLE ( 'NONE', #208, 2.100000000000000977 ) ;
#100 = FACE_OUTER_BOUND ( 'NONE', #66, .T. ) ;
#101 = EDGE_CURVE ( 'NONE', #167, #244, #68, .T. ) ;
#102 = SHAPE_DEFINITION_REPRESENTATION ( #184, #203 ) ;
#103 = FACE_OUTER_BOUND ( 'NONE', #160, .T. ) ;
#104 = UNCERTAINTY_MEASURE_WITH_UNIT (LENGTH_MEASURE( 1.000000000000000082E-05 ), #249, 'distance_accuracy_value', 'NONE');
#105 = DIRECTION ( 'NONE',  ( 0.0000000000000000000, 1.000000000000000000, 0.0000000000000000000 ) ) ;
#106 = APPROVAL_PERSON_ORGANIZATION ( #313, #21, #289 ) ;
#107 = COORDINATED_UNIVERSAL_TIME_OFFSET ( 1, 0, .AHEAD. ) ;
#108 = DIRECTION ( 'NONE',  ( 1.798245827342160317E-15, -0.8571673007021098911, 0.5150380749100582634 ) ) ;
#109 = AXIS2_PLACEMENT_3D ( 'NONE', #62, #20, #204 ) ;
#110 = EDGE_CURVE ( 'NONE', #326, #244, #311, .T. ) ;
#111 = CARTESIAN_POINT ( 'NONE',  ( 4.662752468839947533E-15, 2.099999999999994760, 1.261807299957887540 ) ) ;
#112 = FACE_OUTER_BOUND ( 'NONE', #257, .T. ) ;
#113 = DIRECTION ( 'NONE',  ( 0.0000000000000000000, 1.000000000000000000, 0.0000000000000000000 ) ) ;
#114 = ORIENTED_EDGE ( 'NONE', *, *, #227, .F. ) ;
#115 = VECTOR ( 'NONE', #63, 1000.000000000000000 ) ;
#116 = SECURITY_CLASSIFICATION ( '', '', #25 ) ;
#117 = EDGE_LOOP ( 'NONE', ( #114, #195, #158, #157 ) ) ;
#118 = CARTESIAN_POINT ( 'NONE',  ( 8.979246036383609746E-31, 2.099999999999999201, 2.571758278209440478E-16 ) ) ;
#119 = CALENDAR_DATE ( 2021, 3, 9 ) ;
#120 = VERTEX_POINT ( 'NONE', #274 ) ;
#121 = DIRECTION ( 'NONE',  ( -3.491481338843133355E-15, 1.224646799147353207E-16, -1.000000000000000000 ) ) ;
#122 = DIRECTION ( 'NONE',  ( -3.491481338843133355E-15, 1.224646799147353207E-16, -1.000000000000000000 ) ) ;
#123 = APPROVAL ( #202, 'UNSPECIFIED' ) ;
#124 = CARTESIAN_POINT ( 'NONE',  ( 1.913851629595038182E-13, -1.600000000000008082, 55.00000000000000000 ) ) ;
#125 = EDGE_CURVE ( 'NONE', #172, #326, #283, .T. ) ;
#126 = CLOSED_SHELL ( 'NONE', ( #250, #331, #80, #282, #144 ) ) ;
#127 = APPLICATION_CONTEXT ( 'configuration controlled 3d designs of mechanical parts and assemblies' ) ;
#128 = DIRECTION ( 'NONE',  ( 4.275831445896958607E-31, 1.000000000000000000, 1.224646799147352961E-16 ) ) ;
#129 = LINE ( 'NONE', #152, #115 ) ;
#130 = VECTOR ( 'NONE', #168, 1000.000000000000000 ) ;
#131 = VERTEX_POINT ( 'NONE', #15 ) ;
#132 = AXIS2_PLACEMENT_3D ( 'NONE', #175, #279, #225 ) ;
#133 = APPROVAL_STATUS ( 'not_yet_approved' ) ;
#134 = DIRECTION ( 'NONE',  ( 0.0000000000000000000, 1.000000000000000000, 0.0000000000000000000 ) ) ;
#135 = CARTESIAN_POINT ( 'NONE',  ( 2.571758278209431603E-16, -2.099999999999999201, -2.571758278209449353E-16 ) ) ;
#136 = VERTEX_POINT ( 'NONE', #124 ) ;
#137 = ADVANCED_FACE ( 'NONE', ( #100 ), #42, .T. ) ;
#138 = ORIENTED_EDGE ( 'NONE', *, *, #88, .T. ) ;
#139 = CONICAL_SURFACE ( 'NONE', #308, 2.099999999999994760, 1.029744258676649649 ) ;
#140 = PERSON_AND_ORGANIZATION_ROLE ( 'creator' ) ;
#141 = DIRECTION ( 'NONE',  ( 0.0000000000000000000, 1.000000000000000000, 0.0000000000000000000 ) ) ;
#142 = DIRECTION ( 'NONE',  ( -3.491481338843133355E-15, 1.224646799147353207E-16, -1.000000000000000000 ) ) ;
#143 = CARTESIAN_POINT ( 'NONE',  ( 4.405576641019002302E-15, -2.099999999999994760, 1.261807299957887096 ) ) ;
#144 = ADVANCED_FACE ( 'NONE', ( #103 ), #229, .T. ) ;
#145 = CARTESIAN_POINT ( 'NONE',  ( 5.935518276033326704E-14, 2.099999999999994760, 17.00000000000000000 ) ) ;
#146 = AXIS2_PLACEMENT_3D ( 'NONE', #305, #252, #199 ) ;
#147 = ORIENTED_EDGE ( 'NONE', *, *, #227, .T. ) ;
#148 = DIRECTION ( 'NONE',  ( -3.491481338843133355E-15, 1.224646799147353207E-16, -1.000000000000000000 ) ) ;
#149 = EDGE_CURVE ( 'NONE', #286, #131, #254, .T. ) ;
#150 = AXIS2_PLACEMENT_3D ( 'NONE', #285, #304, #47 ) ;
#151 = EDGE_CURVE ( 'NONE', #326, #172, #205, .T. ) ;
#152 = CARTESIAN_POINT ( 'NONE',  ( 8.979246036383595733E-31, 2.099999999999996092, 2.571758278209436534E-16 ) ) ;
#153 = CIRCLE ( 'NONE', #73, 2.100000000000000977 ) ;
#154 = ORIENTED_EDGE ( 'NONE', *, *, #101, .F. ) ;
#155 = APPROVAL_STATUS ( 'not_yet_approved' ) ;
#156 = DIRECTION ( 'NONE',  ( 0.0000000000000000000, 1.000000000000000000, 0.0000000000000000000 ) ) ;
#157 = ORIENTED_EDGE ( 'NONE', *, *, #149, .F. ) ;
#158 = ORIENTED_EDGE ( 'NONE', *, *, #267, .T. ) ;
#159 = DIRECTION ( 'NONE',  ( 3.668437989309029973E-31, 1.000000000000000000, 1.032573497605244936E-16 ) ) ;
#160 = EDGE_LOOP ( 'NONE', ( #256, #95 ) ) ;
#161 = CARTESIAN_POINT ( 'NONE',  ( 0.0000000000000000000, 0.0000000000000000000, 0.0000000000000000000 ) ) ;
#162 = AXIS2_PLACEMENT_3D ( 'NONE', #161, #193, #64 ) ;
#163 = VERTEX_POINT ( 'NONE', #111 ) ;
#164 = DATE_AND_TIME ( #56, #48 ) ;
#165 = MANIFOLD_SOLID_BREP ( 'Corps-Déplacer/Copier1[1]', #72 ) ;
#166 = AXIS2_PLACEMENT_3D ( 'NONE', #178, #71, #317 ) ;
#167 = VERTEX_POINT ( 'NONE', #210 ) ;
#168 = DIRECTION ( 'NONE',  ( -3.491481338843133355E-15, 1.224646799147353207E-16, -1.000000000000000000 ) ) ;
#169 = ORIENTED_EDGE ( 'NONE', *, *, #88, .F. ) ;
#170 = CARTESIAN_POINT ( 'NONE',  ( 0.0000000000000000000, 0.0000000000000000000, 0.0000000000000000000 ) ) ;
#171 = DATE_AND_TIME ( #260, #275 ) ;
#172 = VERTEX_POINT ( 'NONE', #145 ) ;
#173 = AXIS2_PLACEMENT_3D ( 'NONE', #296, #142, #181 ) ;
#174 = APPROVAL_PERSON_ORGANIZATION ( #49, #8, #310 ) ;
#175 = CARTESIAN_POINT ( 'NONE',  ( 5.935518276033326704E-14, -2.081899558550500280E-15, 17.00000000000000000 ) ) ;
#176 = CC_DESIGN_PERSON_AND_ORGANIZATION_ASSIGNMENT ( #265, #91, ( #77 ) ) ;
#177 = CARTESIAN_POINT ( 'NONE',  ( 0.0000000000000000000, 0.0000000000000000000, 0.0000000000000000000 ) ) ;
#178 = CARTESIAN_POINT ( 'NONE',  ( 1.920314736363723472E-13, -6.735557395310442615E-15, 55.00000000000000000 ) ) ;
#179 = APPROVAL_DATE_TIME ( #277, #8 ) ;
#180 = CC_DESIGN_APPROVAL ( #21, ( #330 ) ) ;
#181 = DIRECTION ( 'NONE',  ( 3.668437989309029973E-31, 1.000000000000000000, 1.032573497605244936E-16 ) ) ;
#182 = CC_DESIGN_PERSON_AND_ORGANIZATION_ASSIGNMENT ( #220, #336, ( #291 ) ) ;
#183 = CARTESIAN_POINT ( 'NONE',  ( 4.405576641019002302E-15, -2.099999999999994760, 1.261807299957887096 ) ) ;
#184 = PRODUCT_DEFINITION_SHAPE ( 'NONE', 'NONE',  #330 ) ;
#185 = AXIS2_PLACEMENT_3D ( 'NONE', #292, #221, #98 ) ;
#186 = CARTESIAN_POINT ( 'NONE',  ( 4.405576641019003091E-15, -1.545268271034190857E-16, 1.261807299957887318 ) ) ;
#187 = PERSON_AND_ORGANIZATION_ROLE ( 'classification_officer' ) ;
#188 = CARTESIAN_POINT ( 'NONE',  ( 2.571758278209428152E-16, -2.099999999999996092, -2.571758278209445901E-16 ) ) ;
#189 = PERSON_AND_ORGANIZATION ( #243, #200 ) ;
#190 = EDGE_CURVE ( 'NONE', #136, #322, #93, .T. ) ;
#191 = DIRECTION ( 'NONE',  ( -3.668437989309029973E-31, -1.000000000000000000, -1.032573497605244936E-16 ) ) ;
#192 = CIRCLE ( 'NONE', #53, 2.099999999999994760 ) ;
#193 = DIRECTION ( 'NONE',  ( 0.0000000000000000000, 0.0000000000000000000, 1.000000000000000000 ) ) ;
#194 = VECTOR ( 'NONE', #108, 1000.000000000000000 ) ;
#195 = ORIENTED_EDGE ( 'NONE', *, *, #245, .T. ) ;
#196 = APPLICATION_PROTOCOL_DEFINITION ( 'international standard', 'config_control_design', 1994, #206 ) ;
#197 =( NAMED_UNIT ( * ) PLANE_ANGLE_UNIT ( ) SI_UNIT ( $, .RADIAN. ) );
#198 = ORIENTED_EDGE ( 'NONE', *, *, #258, .F. ) ;
#199 = DIRECTION ( 'NONE',  ( 0.0000000000000000000, 1.000000000000000000, 0.0000000000000000000 ) ) ;
#200 = ORGANIZATION ( 'UNSPECIFIED', 'UNSPECIFIED', '' ) ;
#201 = FACE_OUTER_BOUND ( 'NONE', #232, .T. ) ;
#202 = APPROVAL_STATUS ( 'not_yet_approved' ) ;
#203 = ADVANCED_BREP_SHAPE_REPRESENTATION ( '42340', ( #165, #269, #162 ), #84 ) ;
#204 = DIRECTION ( 'NONE',  ( -4.275831445896958607E-31, -1.000000000000000000, -1.224646799147353207E-16 ) ) ;
#205 = CIRCLE ( 'NONE', #132, 2.099999999999996980 ) ;
#206 = APPLICATION_CONTEXT ( 'configuration controlled 3d designs of mechanical parts and assemblies' ) ;
#207 = DIRECTION ( 'NONE',  ( -3.491481338843133355E-15, 1.224646799147353207E-16, -1.000000000000000000 ) ) ;
#208 = AXIS2_PLACEMENT_3D ( 'NONE', #236, #122, #12 ) ;
#209 = FACE_OUTER_BOUND ( 'NONE', #50, .T. ) ;
#210 = CARTESIAN_POINT ( 'NONE',  ( 0.0000000000000000000, 0.0000000000000000000, 0.0000000000000000000 ) ) ;
#211 = PLANE ( 'NONE',  #185 ) ;
#212 = FACE_OUTER_BOUND ( 'NONE', #30, .T. ) ;
#213 = AXIS2_PLACEMENT_3D ( 'NONE', #323, #121, #290 ) ;
#214 = VECTOR ( 'NONE', #13, 999.9999999999998863 ) ;
#215 = ORIENTED_EDGE ( 'NONE', *, *, #37, .T. ) ;
#216 = DATE_AND_TIME ( #119, #44 ) ;
#217 = FACE_OUTER_BOUND ( 'NONE', #222, .T. ) ;
#218 = CARTESIAN_POINT ( 'NONE',  ( 1.922274171242359083E-13, -1.600000000000008082, 55.00000000000000000 ) ) ;
#219 = CARTESIAN_POINT ( 'NONE',  ( 1.250776336914628104E-13, -2.100000000000007638, 54.50000000000000711 ) ) ;
#220 = PERSON_AND_ORGANIZATION ( #243, #200 ) ;
#221 = DIRECTION ( 'NONE',  ( -3.491481338843133355E-15, 1.224646799147353207E-16, -1.000000000000000000 ) ) ;
#222 = EDGE_LOOP ( 'NONE', ( #248, #312, #215, #90 ) ) ;
#223 = DIRECTION ( 'NONE',  ( -3.491481338843133355E-15, 1.224646799147353207E-16, -1.000000000000000000 ) ) ;
#224 = CC_DESIGN_APPROVAL ( #8, ( #116 ) ) ;
#225 = DIRECTION ( 'NONE',  ( 0.0000000000000000000, 1.000000000000000000, 0.0000000000000000000 ) ) ;
#226 = DIRECTION ( 'NONE',  ( -2.468850131082249961E-15, 0.7071067811865521247, -0.7071067811865430208 ) ) ;
#227 = EDGE_CURVE ( 'NONE', #322, #286, #298, .T. ) ;
#228 = FACE_OUTER_BOUND ( 'NONE', #117, .T. ) ;
#229 = PLANE ( 'NONE',  #109 ) ;
#230 = AXIS2_PLACEMENT_3D ( 'NONE', #329, #39, #241 ) ;
#231 = EDGE_CURVE ( 'NONE', #167, #163, #29, .T. ) ;
#232 = EDGE_LOOP ( 'NONE', ( #33, #138, #83, #332 ) ) ;
#233 = CC_DESIGN_PERSON_AND_ORGANIZATION_ASSIGNMENT ( #271, #246, ( #291 ) ) ;
#234 = ORIENTED_EDGE ( 'NONE', *, *, #125, .T. ) ;
#235 = APPROVAL_DATE_TIME ( #164, #21 ) ;
#236 = CARTESIAN_POINT ( 'NONE',  ( 1.902857329669507868E-13, -6.674325055353075830E-15, 54.50000000000000711 ) ) ;
#237 = AXIS2_PLACEMENT_3D ( 'NONE', #38, #223, #105 ) ;
#238 = AXIS2_PLACEMENT_3D ( 'NONE', #170, #268, #270 ) ;
#239 = COORDINATED_UNIVERSAL_TIME_OFFSET ( 1, 0, .AHEAD. ) ;
#240 = CYLINDRICAL_SURFACE ( 'NONE', #238, 2.099999999999996092 ) ;
#241 = DIRECTION ( 'NONE',  ( -3.668437989309029973E-31, -1.000000000000000000, -1.032573497605244936E-16 ) ) ;
#242 = CARTESIAN_POINT ( 'NONE',  ( 1.902857329669507868E-13, -6.674325055353075830E-15, 54.50000000000000711 ) ) ;
#243 = PERSON ( 'UNSPECIFIED', 'UNSPECIFIED', 'UNSPECIFIED', ('UNSPECIFIED'), ('UNSPECIFIED'), ('UNSPECIFIED') ) ;
#244 = VERTEX_POINT ( 'NONE', #143 ) ;
#245 = EDGE_CURVE ( 'NONE', #322, #4, #153, .T. ) ;
#246 = PERSON_AND_ORGANIZATION_ROLE ( 'creator' ) ;
#247 = ORIENTED_EDGE ( 'NONE', *, *, #190, .T. ) ;
#248 = ORIENTED_EDGE ( 'NONE', *, *, #110, .F. ) ;
#249 =( LENGTH_UNIT ( ) NAMED_UNIT ( * ) SI_UNIT ( .MILLI., .METRE. ) );
#250 = ADVANCED_FACE ( 'NONE', ( #212 ), #240, .T. ) ;
#251 = CONICAL_SURFACE ( 'NONE', #61, 1.600000000000001421, 0.7853981633974547183 ) ;
#252 = DIRECTION ( 'NONE',  ( -3.491481338843133355E-15, 1.224646799147353207E-16, -1.000000000000000000 ) ) ;
#253 = APPROVAL_ROLE ( '' ) ;
#254 = CIRCLE ( 'NONE', #146, 2.099999999999996980 ) ;
#255 =( NAMED_UNIT ( * ) SI_UNIT ( $, .STERADIAN. ) SOLID_ANGLE_UNIT ( ) );
#256 = ORIENTED_EDGE ( 'NONE', *, *, #125, .F. ) ;
#257 = EDGE_LOOP ( 'NONE', ( #276, #169 ) ) ;
#258 = EDGE_CURVE ( 'NONE', #4, #322, #99, .T. ) ;
#259 = CONICAL_SURFACE ( 'NONE', #230, 2.099999999999994760, 1.029744258676649649 ) ;
#260 = CALENDAR_DATE ( 2021, 3, 9 ) ;
#261 = DIRECTION ( 'NONE',  ( -3.491481338843133355E-15, 1.224646799147353207E-16, -1.000000000000000000 ) ) ;
#262 = CARTESIAN_POINT ( 'NONE',  ( 5.935518276033326704E-14, 1.574747771794945014E-32, 17.00000000000000000 ) ) ;
#263 = ADVANCED_FACE ( 'NONE', ( #58 ), #316, .F. ) ;
#264 = ORIENTED_EDGE ( 'NONE', *, *, #258, .T. ) ;
#265 = PERSON_AND_ORGANIZATION ( #243, #200 ) ;
#266 = DIRECTION ( 'NONE',  ( -3.491481338843133355E-15, 1.224646799147353207E-16, -1.000000000000000000 ) ) ;
#267 = EDGE_CURVE ( 'NONE', #4, #131, #11, .T. ) ;
#268 = DIRECTION ( 'NONE',  ( -3.491481338843133355E-15, 1.224646799147353207E-16, -1.000000000000000000 ) ) ;
#269 = MANIFOLD_SOLID_BREP ( 'Corps-Déplacer/Copier1[2]', #126 ) ;
#270 = DIRECTION ( 'NONE',  ( 4.275831445896958607E-31, 1.000000000000000000, 1.224646799147352961E-16 ) ) ;
#271 = PERSON_AND_ORGANIZATION ( #243, #200 ) ;
#272 = ORIENTED_EDGE ( 'NONE', *, *, #101, .T. ) ;
#273 = PRODUCT_RELATED_PRODUCT_CATEGORY ( 'detail', '', ( #77 ) ) ;
#274 = CARTESIAN_POINT ( 'NONE',  ( 1.920314736363723472E-13, 1.599999999999994760, 55.00000000000000000 ) ) ;
#275 = LOCAL_TIME ( 9, 22, 24.00000000000000000, #67 ) ;
#276 = ORIENTED_EDGE ( 'NONE', *, *, #294, .F. ) ;
#277 = DATE_AND_TIME ( #333, #27 ) ;
#278 = FACE_OUTER_BOUND ( 'NONE', #51, .T. ) ;
#279 = DIRECTION ( 'NONE',  ( -3.491481338843133355E-15, 1.224646799147353207E-16, -1.000000000000000000 ) ) ;
#280 = CYLINDRICAL_SURFACE ( 'NONE', #150, 2.099999999999999201 ) ;
#281 = CARTESIAN_POINT ( 'NONE',  ( 3.213755552849704243E-14, -2.099999999999999201, 17.00000000000000000 ) ) ;
#282 = ADVANCED_FACE ( 'NONE', ( #217 ), #81, .T. ) ;
#283 = CIRCLE ( 'NONE', #14, 2.099999999999996980 ) ;
#284 = DIRECTION ( 'NONE',  ( 0.0000000000000000000, 1.000000000000000000, 0.0000000000000000000 ) ) ;
#285 = CARTESIAN_POINT ( 'NONE',  ( 0.0000000000000000000, 0.0000000000000000000, 0.0000000000000000000 ) ) ;
#286 = VERTEX_POINT ( 'NONE', #303 ) ;
#287 = CIRCLE ( 'NONE', #18, 1.600000000000001421 ) ;
#288 = DATE_TIME_ROLE ( 'classification_date' ) ;
#289 = APPROVAL_ROLE ( '' ) ;
#290 = DIRECTION ( 'NONE',  ( 4.275831445896958607E-31, 1.000000000000000000, 1.224646799147352961E-16 ) ) ;
#291 = PRODUCT_DEFINITION_FORMATION_WITH_SPECIFIED_SOURCE ( 'ANY', '', #77, .NOT_KNOWN. ) ;
#292 = CARTESIAN_POINT ( 'NONE',  ( 1.920314736363723472E-13, 1.199807826129477054E-32, 55.00000000000000000 ) ) ;
#293 = APPROVAL_DATE_TIME ( #171, #123 ) ;
#294 = EDGE_CURVE ( 'NONE', #120, #136, #35, .T. ) ;
#295 = DIRECTION ( 'NONE',  ( -3.491481338843133355E-15, 1.224646799147353207E-16, -1.000000000000000000 ) ) ;
#296 = CARTESIAN_POINT ( 'NONE',  ( 4.405576641019003091E-15, -1.545268271034190857E-16, 1.261807299957887318 ) ) ;
#297 = DATE_TIME_ROLE ( 'creation_date' ) ;
#298 = LINE ( 'NONE', #135, #19 ) ;
#299 = CC_DESIGN_APPROVAL ( #123, ( #291 ) ) ;
#300 = CC_DESIGN_DATE_AND_TIME_ASSIGNMENT ( #216, #297, ( #330 ) ) ;
#301 = VECTOR ( 'NONE', #226, 999.9999999999998863 ) ;
#302 = AXIS2_PLACEMENT_3D ( 'NONE', #46, #266, #113 ) ;
#303 = CARTESIAN_POINT ( 'NONE',  ( 1.250776336914629114E-13, -2.099999999999999201, 17.00000000000000000 ) ) ;
#304 = DIRECTION ( 'NONE',  ( -3.491481338843133355E-15, 1.224646799147353207E-16, -1.000000000000000000 ) ) ;
#305 = CARTESIAN_POINT ( 'NONE',  ( 5.935518276033326704E-14, -2.081899558550500280E-15, 17.00000000000000000 ) ) ;
#306 = LINE ( 'NONE', #41, #301 ) ;
#307 = EDGE_CURVE ( 'NONE', #244, #163, #192, .T. ) ;
#308 = AXIS2_PLACEMENT_3D ( 'NONE', #186, #82, #191 ) ;
#309 = ADVANCED_FACE ( 'NONE', ( #209 ), #251, .T. ) ;
#310 = APPROVAL_ROLE ( '' ) ;
#311 = LINE ( 'NONE', #188, #43 ) ;
#312 = ORIENTED_EDGE ( 'NONE', *, *, #151, .T. ) ;
#313 = PERSON_AND_ORGANIZATION ( #243, #200 ) ;
#314 = CARTESIAN_POINT ( 'NONE',  ( 1.920314736363723472E-13, -6.735557395310442615E-15, 55.00000000000000000 ) ) ;
#315 = CALENDAR_DATE ( 2021, 3, 9 ) ;
#316 = PLANE ( 'NONE',  #22 ) ;
#317 = DIRECTION ( 'NONE',  ( 0.0000000000000000000, 1.000000000000000000, 0.0000000000000000000 ) ) ;
#318 = LOCAL_TIME ( 9, 22, 24.00000000000000000, #2 ) ;
#319 = ADVANCED_FACE ( 'NONE', ( #112 ), #211, .F. ) ;
#320 = ORIENTED_EDGE ( 'NONE', *, *, #45, .F. ) ;
#321 = DIRECTION ( 'NONE',  ( -2.382254525458700509E-15, -0.7071067811865519026, -0.7071067811865431318 ) ) ;
#322 = VERTEX_POINT ( 'NONE', #219 ) ;
#323 = CARTESIAN_POINT ( 'NONE',  ( 0.0000000000000000000, 0.0000000000000000000, 0.0000000000000000000 ) ) ;
#324 = DIRECTION ( 'NONE',  ( 3.491481338843133355E-15, -1.224646799147353207E-16, 1.000000000000000000 ) ) ;
#325 = VECTOR ( 'NONE', #321, 1000.000000000000000 ) ;
#326 = VERTEX_POINT ( 'NONE', #281 ) ;
#327 = ORIENTED_EDGE ( 'NONE', *, *, #16, .T. ) ;
#328 = ORIENTED_EDGE ( 'NONE', *, *, #16, .F. ) ;
#329 = CARTESIAN_POINT ( 'NONE',  ( 4.405576641019003091E-15, -1.545268271034190857E-16, 1.261807299957887318 ) ) ;
#330 = PRODUCT_DEFINITION ( 'UNKNOWN', '', #291, #59 ) ;
#331 = ADVANCED_FACE ( 'NONE', ( #278 ), #259, .T. ) ;
#332 = ORIENTED_EDGE ( 'NONE', *, *, #245, .F. ) ;
#333 = CALENDAR_DATE ( 2021, 3, 9 ) ;
#334 = CC_DESIGN_DATE_AND_TIME_ASSIGNMENT ( #78, #288, ( #116 ) ) ;
#335 = APPROVAL_PERSON_ORGANIZATION ( #57, #123, #253 ) ;
#336 = PERSON_AND_ORGANIZATION_ROLE ( 'design_supplier' ) ;
#337 = CARTESIAN_POINT ( 'NONE',  ( 1.920314736363723472E-13, -6.735557395310442615E-15, 55.00000000000000000 ) ) ;
ENDSEC;
END-ISO-10303-21;
