ISO-10303-21;
HEADER;
FILE_DESCRIPTION (( 'STEP AP203' ),
    '1' );
FILE_NAME ('42339.step',
    '2021-09-03T07:22:24',
    ( '' ),
    ( '' ),
    'SwSTEP 2.0',
    'SolidWorks 2019',
    '' );
FILE_SCHEMA (( 'CONFIG_CONTROL_DESIGN' ));
ENDSEC;

DATA;
#1 = EDGE_CURVE ( 'NONE', #205, #161, #257, .T. ) ;
#2 = CALENDAR_DATE ( 2021, 3, 9 ) ;
#3 = COORDINATED_UNIVERSAL_TIME_OFFSET ( 1, 0, .AHEAD. ) ;
#4 = CARTESIAN_POINT ( 'NONE',  ( 0.0000000000000000000, 0.0000000000000000000, 0.0000000000000000000 ) ) ;
#5 = DATE_TIME_ROLE ( 'classification_date' ) ;
#6 = CC_DESIGN_DATE_AND_TIME_ASSIGNMENT ( #238, #5, ( #73 ) ) ;
#7 = AXIS2_PLACEMENT_3D ( 'NONE', #195, #143, #152 ) ;
#8 = CALENDAR_DATE ( 2021, 3, 9 ) ;
#9 = APPROVAL_STATUS ( 'not_yet_approved' ) ;
#10 = PRODUCT_RELATED_PRODUCT_CATEGORY ( 'detail', '', ( #217 ) ) ;
#11 = CARTESIAN_POINT ( 'NONE',  ( 1.606081415867841091E-13, -5.633375276077824704E-15, 46.00000000000000000 ) ) ;
#12 = ORIENTED_EDGE ( 'NONE', *, *, #269, .F. ) ;
#13 = DIRECTION ( 'NONE',  ( -3.491481338843133355E-15, 1.224646799147353207E-16, -1.000000000000000000 ) ) ;
#14 = CC_DESIGN_PERSON_AND_ORGANIZATION_ASSIGNMENT ( #199, #254, ( #217 ) ) ;
#15 = MECHANICAL_CONTEXT ( 'NONE', #263, 'mechanical' ) ;
#16 = CYLINDRICAL_SURFACE ( 'NONE', #303, 1.399999999999995026 ) ;
#17 = CARTESIAN_POINT ( 'NONE',  ( 1.606081415867841091E-13, -5.633375276077824704E-15, 46.00000000000000000 ) ) ;
#18 = EDGE_LOOP ( 'NONE', ( #64, #309 ) ) ;
#19 = FACE_OUTER_BOUND ( 'NONE', #54, .T. ) ;
#20 = CARTESIAN_POINT ( 'NONE',  ( 1.009006871775048492E-13, -1.400000000000002798, 45.69999999999999574 ) ) ;
#21 = CIRCLE ( 'NONE', #211, 1.399999999999991473 ) ;
#22 = CC_DESIGN_SECURITY_CLASSIFICATION ( #73, ( #334 ) ) ;
#23 = CARTESIAN_POINT ( 'NONE',  ( 2.937051094012658998E-15, -1.030178847356123745E-16, 0.8412048666385887330 ) ) ;
#24 = PRODUCT_DEFINITION_SHAPE ( 'NONE', 'NONE',  #327 ) ;
#25 = CC_DESIGN_PERSON_AND_ORGANIZATION_ASSIGNMENT ( #216, #74, ( #327 ) ) ;
#26 = ORIENTED_EDGE ( 'NONE', *, *, #1, .F. ) ;
#27 = AXIS2_PLACEMENT_3D ( 'NONE', #299, #282, #213 ) ;
#28 = CC_DESIGN_APPROVAL ( #103, ( #327 ) ) ;
#29 = ADVANCED_FACE ( 'NONE', ( #251 ), #16, .T. ) ;
#30 = APPROVAL_DATE_TIME ( #99, #260 ) ;
#31 = DATE_TIME_ROLE ( 'creation_date' ) ;
#32 = DIRECTION ( 'NONE',  ( -3.491481338843133355E-15, 1.224646799147353207E-16, -1.000000000000000000 ) ) ;
#33 = ORIENTED_EDGE ( 'NONE', *, *, #154, .F. ) ;
#34 = DIRECTION ( 'NONE',  ( 0.0000000000000000000, 1.000000000000000000, 0.0000000000000000000 ) ) ;
#35 = ORIENTED_EDGE ( 'NONE', *, *, #253, .T. ) ;
#36 = EDGE_LOOP ( 'NONE', ( #291, #233, #248, #137 ) ) ;
#37 = VECTOR ( 'NONE', #223, 999.9999999999998863 ) ;
#38 = LOCAL_TIME ( 9, 22, 24.00000000000000000, #3 ) ;
#39 = EDGE_CURVE ( 'NONE', #161, #185, #66, .T. ) ;
#40 = VERTEX_POINT ( 'NONE', #100 ) ;
#41 = DIRECTION ( 'NONE',  ( 0.0000000000000000000, 1.000000000000000000, 0.0000000000000000000 ) ) ;
#42 = DIRECTION ( 'NONE',  ( -5.502656983963564665E-31, -1.000000000000000000, -1.548860246407872951E-16 ) ) ;
#43 = ORIENTED_EDGE ( 'NONE', *, *, #114, .T. ) ;
#44 = ORIENTED_EDGE ( 'NONE', *, *, #154, .T. ) ;
#45 = AXIS2_PLACEMENT_3D ( 'NONE', #268, #328, #116 ) ;
#46 = CARTESIAN_POINT ( 'NONE',  ( 5.986164024255720855E-31, 1.399999999999995026, 1.714505518806288475E-16 ) ) ;
#47 = ORIENTED_EDGE ( 'NONE', *, *, #331, .F. ) ;
#48 = DIRECTION ( 'NONE',  ( -3.491481338843133355E-15, 1.224646799147353207E-16, -1.000000000000000000 ) ) ;
#49 = DIRECTION ( 'NONE',  ( -3.491481338843133355E-15, 1.224646799147353207E-16, -1.000000000000000000 ) ) ;
#50 = CC_DESIGN_DATE_AND_TIME_ASSIGNMENT ( #316, #31, ( #327 ) ) ;
#51 = CARTESIAN_POINT ( 'NONE',  ( 4.189777606611760026E-14, 1.399999999999991473, 12.00000000000000000 ) ) ;
#52 = LINE ( 'NONE', #183, #298 ) ;
#53 = CONICAL_SURFACE ( 'NONE', #245, 1.399999999999991473, 1.029744258676649649 ) ;
#54 = EDGE_LOOP ( 'NONE', ( #243, #210, #262, #124 ) ) ;
#55 = DATE_AND_TIME ( #186, #38 ) ;
#56 = AXIS2_PLACEMENT_3D ( 'NONE', #209, #49, #259 ) ;
#57 = PLANE ( 'NONE',  #45 ) ;
#58 = ORIENTED_EDGE ( 'NONE', *, *, #76, .T. ) ;
#59 = ORGANIZATION ( 'UNSPECIFIED', 'UNSPECIFIED', '' ) ;
#60 = CARTESIAN_POINT ( 'NONE',  ( 4.189777606611760026E-14, -1.469576158976823947E-15, 12.00000000000000000 ) ) ;
#61 = FACE_OUTER_BOUND ( 'NONE', #18, .T. ) ;
#62 = ORIENTED_EDGE ( 'NONE', *, *, #130, .F. ) ;
#63 = CARTESIAN_POINT ( 'NONE',  ( 2.937051094012658209E-15, -1.399999999999991473, 0.8412048666385885110 ) ) ;
#64 = ORIENTED_EDGE ( 'NONE', *, *, #266, .F. ) ;
#65 = PERSON_AND_ORGANIZATION_ROLE ( 'classification_officer' ) ;
#66 = LINE ( 'NONE', #46, #167 ) ;
#67 = COORDINATED_UNIVERSAL_TIME_OFFSET ( 1, 0, .AHEAD. ) ;
#68 = ADVANCED_FACE ( 'NONE', ( #310 ), #215, .T. ) ;
#69 = EDGE_LOOP ( 'NONE', ( #47, #247, #279, #79 ) ) ;
#70 = PLANE ( 'NONE',  #224 ) ;
#71 = DIRECTION ( 'NONE',  ( -3.491481338843133355E-15, 1.224646799147353207E-16, -1.000000000000000000 ) ) ;
#72 = PERSON_AND_ORGANIZATION ( #329, #59 ) ;
#73 = SECURITY_CLASSIFICATION ( '', '', #332 ) ;
#74 = PERSON_AND_ORGANIZATION_ROLE ( 'creator' ) ;
#75 = CARTESIAN_POINT ( 'NONE',  ( 1.714505518806282312E-16, -1.399999999999995026, -1.714505518806294145E-16 ) ) ;
#76 = EDGE_CURVE ( 'NONE', #318, #161, #184, .T. ) ;
#77 = ORIENTED_EDGE ( 'NONE', *, *, #246, .F. ) ;
#78 = DIRECTION ( 'NONE',  ( -3.491481338843133355E-15, 1.224646799147353207E-16, -1.000000000000000000 ) ) ;
#79 = ORIENTED_EDGE ( 'NONE', *, *, #253, .F. ) ;
#80 = VECTOR ( 'NONE', #241, 1000.000000000000114 ) ;
#81 = DIRECTION ( 'NONE',  ( -3.491481338843133355E-15, 1.224646799147353207E-16, -1.000000000000000000 ) ) ;
#82 = EDGE_CURVE ( 'NONE', #40, #191, #52, .T. ) ;
#83 = EDGE_LOOP ( 'NONE', ( #202, #317, #190, #281 ) ) ;
#84 = DIRECTION ( 'NONE',  ( -3.491481338843133355E-15, 1.224646799147353207E-16, -1.000000000000000000 ) ) ;
#85 = CARTESIAN_POINT ( 'NONE',  ( 2.258886413194573730E-14, -1.399999999999994582, 12.00000000000000000 ) ) ;
#86 = CARTESIAN_POINT ( 'NONE',  ( 1.606081415867841091E-13, -5.633375276077824704E-15, 46.00000000000000000 ) ) ;
#87 = DIRECTION ( 'NONE',  ( 5.502656983963564665E-31, 1.000000000000000000, 1.548860246407872951E-16 ) ) ;
#88 = VECTOR ( 'NONE', #280, 1000.000000000000000 ) ;
#89 = LINE ( 'NONE', #174, #95 ) ;
#90 = CARTESIAN_POINT ( 'NONE',  ( 0.0000000000000000000, 0.0000000000000000000, 0.0000000000000000000 ) ) ;
#91 = EDGE_CURVE ( 'NONE', #112, #321, #158, .T. ) ;
#92 = FACE_OUTER_BOUND ( 'NONE', #335, .T. ) ;
#93 = PERSON_AND_ORGANIZATION ( #329, #59 ) ;
#94 = VERTEX_POINT ( 'NONE', #98 ) ;
#95 = VECTOR ( 'NONE', #48, 1000.000000000000000 ) ;
#96 = DIRECTION ( 'NONE',  ( -3.491481338843133355E-15, 1.224646799147353207E-16, -1.000000000000000000 ) ) ;
#97 = DATE_AND_TIME ( #234, #308 ) ;
#98 = CARTESIAN_POINT ( 'NONE',  ( 3.108501645893287969E-15, 1.399999999999991473, 0.8412048666385889550 ) ) ;
#99 = DATE_AND_TIME ( #2, #204 ) ;
#100 = CARTESIAN_POINT ( 'NONE',  ( 0.0000000000000000000, 0.0000000000000000000, 0.0000000000000000000 ) ) ;
#101 = FACE_OUTER_BOUND ( 'NONE', #148, .T. ) ;
#102 = CONICAL_SURFACE ( 'NONE', #228, 1.099999999999997202, 0.7853981633974453924 ) ;
#103 = APPROVAL ( #180, 'UNSPECIFIED' ) ;
#104 = FACE_OUTER_BOUND ( 'NONE', #172, .T. ) ;
#105 = CYLINDRICAL_SURFACE ( 'NONE', #181, 1.399999999999992362 ) ;
#106 = LINE ( 'NONE', #75, #237 ) ;
#107 = ADVANCED_FACE ( 'NONE', ( #312 ), #108, .T. ) ;
#108 = CONICAL_SURFACE ( 'NONE', #277, 1.399999999999991473, 1.029744258676649649 ) ;
#109 = DIRECTION ( 'NONE',  ( 4.275831445896958607E-31, 1.000000000000000000, 1.224646799147353207E-16 ) ) ;
#110 = CARTESIAN_POINT ( 'NONE',  ( 1.595606971851311880E-13, -5.596635872103403844E-15, 45.69999999999999574 ) ) ;
#111 = DIRECTION ( 'NONE',  ( -3.491481338843133355E-15, 1.224646799147353207E-16, -1.000000000000000000 ) ) ;
#112 = VERTEX_POINT ( 'NONE', #85 ) ;
#113 = AXIS2_PLACEMENT_3D ( 'NONE', #110, #84, #41 ) ;
#114 = EDGE_CURVE ( 'NONE', #185, #194, #151, .T. ) ;
#115 = APPROVAL_PERSON_ORGANIZATION ( #206, #103, #287 ) ;
#116 = DIRECTION ( 'NONE',  ( -4.275831445896958607E-31, -1.000000000000000000, -1.224646799147353207E-16 ) ) ;
#117 = EDGE_LOOP ( 'NONE', ( #43, #35 ) ) ;
#118 = DIRECTION ( 'NONE',  ( 0.0000000000000000000, 0.0000000000000000000, 1.000000000000000000 ) ) ;
#119 = CARTESIAN_POINT ( 'NONE',  ( 1.009006871775049880E-13, -1.399999999999994582, 12.00000000000000000 ) ) ;
#120 = ADVANCED_FACE ( 'NONE', ( #207 ), #70, .F. ) ;
#121 = APPLICATION_PROTOCOL_DEFINITION ( 'international standard', 'config_control_design', 1994, #265 ) ;
#122 = CIRCLE ( 'NONE', #314, 1.399999999999993028 ) ;
#123 = DIRECTION ( 'NONE',  ( -3.491481338843133355E-15, 1.224646799147353207E-16, -1.000000000000000000 ) ) ;
#124 = ORIENTED_EDGE ( 'NONE', *, *, #201, .F. ) ;
#125 = AXIS2_PLACEMENT_3D ( 'NONE', #261, #32, #324 ) ;
#126 = LOCAL_TIME ( 9, 22, 24.00000000000000000, #173 ) ;
#127 = DIRECTION ( 'NONE',  ( -3.491481338843133355E-15, 1.224646799147353207E-16, -1.000000000000000000 ) ) ;
#128 = APPROVAL_ROLE ( '' ) ;
#129 = DIRECTION ( 'NONE',  ( 4.275831445896958607E-31, 1.000000000000000000, 1.224646799147353207E-16 ) ) ;
#130 = EDGE_CURVE ( 'NONE', #191, #94, #197, .T. ) ;
#131 = APPROVAL_DATE_TIME ( #55, #103 ) ;
#132 = PERSON_AND_ORGANIZATION ( #329, #59 ) ;
#133 =( NAMED_UNIT ( * ) PLANE_ANGLE_UNIT ( ) SI_UNIT ( $, .RADIAN. ) );
#134 = COORDINATED_UNIVERSAL_TIME_OFFSET ( 1, 0, .AHEAD. ) ;
#135 = ADVANCED_FACE ( 'NONE', ( #101 ), #219, .F. ) ;
#136 = LINE ( 'NONE', #319, #37 ) ;
#137 = ORIENTED_EDGE ( 'NONE', *, *, #39, .F. ) ;
#138 = DIRECTION ( 'NONE',  ( -3.491481338843133355E-15, 1.224646799147353207E-16, -1.000000000000000000 ) ) ;
#139 = CONICAL_SURFACE ( 'NONE', #198, 1.099999999999997202, 0.7853981633974453924 ) ;
#140 = DIRECTION ( 'NONE',  ( -3.491481338843133355E-15, 1.224646799147353207E-16, -1.000000000000000000 ) ) ;
#141 = DIRECTION ( 'NONE',  ( 1.000000000000000000, 0.0000000000000000000, 0.0000000000000000000 ) ) ;
#142 = CARTESIAN_POINT ( 'NONE',  ( 1.606081415867841091E-13, 1.099999999999991651, 46.00000000000000000 ) ) ;
#143 = DIRECTION ( 'NONE',  ( -3.491481338843133355E-15, 1.224646799147353207E-16, -1.000000000000000000 ) ) ;
#144 = CC_DESIGN_PERSON_AND_ORGANIZATION_ASSIGNMENT ( #72, #178, ( #334 ) ) ;
#145 = ORIENTED_EDGE ( 'NONE', *, *, #91, .T. ) ;
#146 = CARTESIAN_POINT ( 'NONE',  ( 1.595606971851311880E-13, -5.596635872103403844E-15, 45.69999999999999574 ) ) ;
#147 = DIRECTION ( 'NONE',  ( -4.275831445896958607E-31, -1.000000000000000000, -1.224646799147353207E-16 ) ) ;
#148 = EDGE_LOOP ( 'NONE', ( #12, #33 ) ) ;
#149 = UNCERTAINTY_MEASURE_WITH_UNIT (LENGTH_MEASURE( 1.000000000000000082E-05 ), #220, 'distance_accuracy_value', 'NONE');
#150 = DIRECTION ( 'NONE',  ( 3.491481338843133355E-15, -1.224646799147353207E-16, 1.000000000000000000 ) ) ;
#151 = CIRCLE ( 'NONE', #7, 1.399999999999993028 ) ;
#152 = DIRECTION ( 'NONE',  ( 0.0000000000000000000, 1.000000000000000000, 0.0000000000000000000 ) ) ;
#153 = CC_DESIGN_APPROVAL ( #208, ( #334 ) ) ;
#154 = EDGE_CURVE ( 'NONE', #264, #318, #169, .T. ) ;
#155 = DIRECTION ( 'NONE',  ( 3.491481338843133355E-15, -1.224646799147353207E-16, 1.000000000000000000 ) ) ;
#156 = MANIFOLD_SOLID_BREP ( 'Corps-Déplacer/Copier1[1]', #188 ) ;
#157 = PERSON_AND_ORGANIZATION ( #329, #59 ) ;
#158 = CIRCLE ( 'NONE', #286, 1.399999999999993028 ) ;
#159 = APPROVAL_PERSON_ORGANIZATION ( #132, #260, #128 ) ;
#160 = ADVANCED_FACE ( 'NONE', ( #104 ), #53, .T. ) ;
#161 = VERTEX_POINT ( 'NONE', #235 ) ;
#162 = AXIS2_PLACEMENT_3D ( 'NONE', #17, #13, #293 ) ;
#163 = DIRECTION ( 'NONE',  ( -3.491481338843133355E-15, 1.224646799147353207E-16, -1.000000000000000000 ) ) ;
#164 = DIRECTION ( 'NONE',  ( -3.491481338843133355E-15, 1.224646799147353207E-16, -1.000000000000000000 ) ) ;
#165 = MANIFOLD_SOLID_BREP ( 'Corps-Déplacer/Copier1[2]', #236 ) ;
#166 = ORIENTED_EDGE ( 'NONE', *, *, #82, .F. ) ;
#167 = VECTOR ( 'NONE', #96, 1000.000000000000000 ) ;
#168 = ADVANCED_FACE ( 'NONE', ( #19 ), #284, .T. ) ;
#169 = CIRCLE ( 'NONE', #27, 1.099999999999997202 ) ;
#170 = CARTESIAN_POINT ( 'NONE',  ( 0.0000000000000000000, 0.0000000000000000000, 0.0000000000000000000 ) ) ;
#171 = LINE ( 'NONE', #232, #88 ) ;
#172 = EDGE_LOOP ( 'NONE', ( #166, #200, #239 ) ) ;
#173 = COORDINATED_UNIVERSAL_TIME_OFFSET ( 1, 0, .AHEAD. ) ;
#174 = CARTESIAN_POINT ( 'NONE',  ( 5.986164024255709469E-31, 1.399999999999992362, 1.714505518806285024E-16 ) ) ;
#175 = DIRECTION ( 'NONE',  ( 4.275831445896958607E-31, 1.000000000000000000, 1.224646799147353207E-16 ) ) ;
#176 = CIRCLE ( 'NONE', #162, 1.099999999999997202 ) ;
#177 = CARTESIAN_POINT ( 'NONE',  ( 1.606081415867841091E-13, 1.099999999999991651, 46.00000000000000000 ) ) ;
#178 = PERSON_AND_ORGANIZATION_ROLE ( 'creator' ) ;
#179 = EDGE_CURVE ( 'NONE', #94, #191, #21, .T. ) ;
#180 = APPROVAL_STATUS ( 'not_yet_approved' ) ;
#181 = AXIS2_PLACEMENT_3D ( 'NONE', #222, #111, #109 ) ;
#182 = LOCAL_TIME ( 9, 22, 24.00000000000000000, #189 ) ;
#183 = CARTESIAN_POINT ( 'NONE',  ( 2.937051094012658209E-15, -1.399999999999991473, 0.8412048666385885110 ) ) ;
#184 = LINE ( 'NONE', #177, #80 ) ;
#185 = VERTEX_POINT ( 'NONE', #203 ) ;
#186 = CALENDAR_DATE ( 2021, 3, 9 ) ;
#187 = APPROVAL_STATUS ( 'not_yet_approved' ) ;
#188 = CLOSED_SHELL ( 'NONE', ( #295, #29, #120, #68, #320, #135 ) ) ;
#189 = COORDINATED_UNIVERSAL_TIME_OFFSET ( 1, 0, .AHEAD. ) ;
#190 = ORIENTED_EDGE ( 'NONE', *, *, #289, .F. ) ;
#191 = VERTEX_POINT ( 'NONE', #63 ) ;
#192 = APPROVAL_ROLE ( '' ) ;
#193 = EDGE_CURVE ( 'NONE', #112, #191, #171, .T. ) ;
#194 = VERTEX_POINT ( 'NONE', #119 ) ;
#195 = CARTESIAN_POINT ( 'NONE',  ( 4.189777606611760026E-14, -1.469576158976823947E-15, 12.00000000000000000 ) ) ;
#196 = DESIGN_CONTEXT ( 'detailed design', #265, 'design' ) ;
#197 = CIRCLE ( 'NONE', #125, 1.399999999999991473 ) ;
#198 = AXIS2_PLACEMENT_3D ( 'NONE', #11, #78, #227 ) ;
#199 = PERSON_AND_ORGANIZATION ( #329, #59 ) ;
#200 = ORIENTED_EDGE ( 'NONE', *, *, #246, .T. ) ;
#201 = EDGE_CURVE ( 'NONE', #321, #94, #89, .T. ) ;
#202 = ORIENTED_EDGE ( 'NONE', *, *, #269, .T. ) ;
#203 = CARTESIAN_POINT ( 'NONE',  ( 4.189777606611760026E-14, 1.399999999999991473, 12.00000000000000000 ) ) ;
#204 = LOCAL_TIME ( 9, 22, 24.00000000000000000, #134 ) ;
#205 = VERTEX_POINT ( 'NONE', #20 ) ;
#206 = PERSON_AND_ORGANIZATION ( #329, #59 ) ;
#207 = FACE_OUTER_BOUND ( 'NONE', #117, .T. ) ;
#208 = APPROVAL ( #187, 'UNSPECIFIED' ) ;
#209 = CARTESIAN_POINT ( 'NONE',  ( 0.0000000000000000000, 0.0000000000000000000, 0.0000000000000000000 ) ) ;
#210 = ORIENTED_EDGE ( 'NONE', *, *, #193, .T. ) ;
#211 = AXIS2_PLACEMENT_3D ( 'NONE', #23, #123, #87 ) ;
#212 = ORIENTED_EDGE ( 'NONE', *, *, #130, .T. ) ;
#213 = DIRECTION ( 'NONE',  ( 0.0000000000000000000, 1.000000000000000000, 0.0000000000000000000 ) ) ;
#214 = ADVANCED_FACE ( 'NONE', ( #92 ), #105, .T. ) ;
#215 = CYLINDRICAL_SURFACE ( 'NONE', #307, 1.399999999999995026 ) ;
#216 = PERSON_AND_ORGANIZATION ( #329, #59 ) ;
#217 = PRODUCT ( '42339', '42339', '', ( #15 ) ) ;
#218 = AXIS2_PLACEMENT_3D ( 'NONE', #170, #118, #141 ) ;
#219 = PLANE ( 'NONE',  #322 ) ;
#220 =( LENGTH_UNIT ( ) NAMED_UNIT ( * ) SI_UNIT ( .MILLI., .METRE. ) );
#221 = CARTESIAN_POINT ( 'NONE',  ( 4.189777606611760026E-14, -1.469576158976823947E-15, 12.00000000000000000 ) ) ;
#222 = CARTESIAN_POINT ( 'NONE',  ( 0.0000000000000000000, 0.0000000000000000000, 0.0000000000000000000 ) ) ;
#223 = DIRECTION ( 'NONE',  ( 1.903218546456022717E-15, 0.8571673007021097801, 0.5150380749100585964 ) ) ;
#224 = AXIS2_PLACEMENT_3D ( 'NONE', #229, #336, #147 ) ;
#225 = FACE_OUTER_BOUND ( 'NONE', #83, .T. ) ;
#226 = ORIENTED_EDGE ( 'NONE', *, *, #315, .F. ) ;
#227 = DIRECTION ( 'NONE',  ( 0.0000000000000000000, 1.000000000000000000, 0.0000000000000000000 ) ) ;
#228 = AXIS2_PLACEMENT_3D ( 'NONE', #86, #164, #275 ) ;
#229 = CARTESIAN_POINT ( 'NONE',  ( 4.189777606611760026E-14, 1.049831847863292936E-32, 12.00000000000000000 ) ) ;
#230 = EDGE_LOOP ( 'NONE', ( #226, #44, #58, #26 ) ) ;
#231 = APPROVAL_PERSON_ORGANIZATION ( #157, #208, #192 ) ;
#232 = CARTESIAN_POINT ( 'NONE',  ( 1.714505518806279354E-16, -1.399999999999992362, -1.714505518806291187E-16 ) ) ;
#233 = ORIENTED_EDGE ( 'NONE', *, *, #331, .T. ) ;
#234 = CALENDAR_DATE ( 2021, 3, 9 ) ;
#235 = CARTESIAN_POINT ( 'NONE',  ( 1.595606971851311880E-13, 1.399999999999991473, 45.69999999999999574 ) ) ;
#236 = CLOSED_SHELL ( 'NONE', ( #168, #160, #107, #214, #305 ) ) ;
#237 = VECTOR ( 'NONE', #81, 1000.000000000000000 ) ;
#238 = DATE_AND_TIME ( #240, #126 ) ;
#239 = ORIENTED_EDGE ( 'NONE', *, *, #179, .T. ) ;
#240 = CALENDAR_DATE ( 2021, 3, 9 ) ;
#241 = DIRECTION ( 'NONE',  ( -2.468850131082271655E-15, 0.7071067811865455743, -0.7071067811865493491 ) ) ;
#242 = CC_DESIGN_PERSON_AND_ORGANIZATION_ASSIGNMENT ( #93, #65, ( #73 ) ) ;
#243 = ORIENTED_EDGE ( 'NONE', *, *, #266, .T. ) ;
#244 = DIRECTION ( 'NONE',  ( 0.0000000000000000000, 1.000000000000000000, 0.0000000000000000000 ) ) ;
#245 = AXIS2_PLACEMENT_3D ( 'NONE', #276, #150, #306 ) ;
#246 = EDGE_CURVE ( 'NONE', #40, #94, #136, .T. ) ;
#247 = ORIENTED_EDGE ( 'NONE', *, *, #1, .T. ) ;
#248 = ORIENTED_EDGE ( 'NONE', *, *, #114, .F. ) ;
#249 = DIRECTION ( 'NONE',  ( 4.275831445896958607E-31, 1.000000000000000000, 1.224646799147353207E-16 ) ) ;
#250 = DIRECTION ( 'NONE',  ( 0.0000000000000000000, 1.000000000000000000, 0.0000000000000000000 ) ) ;
#251 = FACE_OUTER_BOUND ( 'NONE', #36, .T. ) ;
#252 = FACE_OUTER_BOUND ( 'NONE', #230, .T. ) ;
#253 = EDGE_CURVE ( 'NONE', #194, #185, #271, .T. ) ;
#254 = PERSON_AND_ORGANIZATION_ROLE ( 'design_owner' ) ;
#255 = PERSON_AND_ORGANIZATION_ROLE ( 'design_supplier' ) ;
#256 = ORIENTED_EDGE ( 'NONE', *, *, #82, .T. ) ;
#257 = CIRCLE ( 'NONE', #113, 1.399999999999997247 ) ;
#258 = CC_DESIGN_APPROVAL ( #260, ( #73 ) ) ;
#259 = DIRECTION ( 'NONE',  ( 4.275831445896958607E-31, 1.000000000000000000, 1.224646799147353207E-16 ) ) ;
#260 = APPROVAL ( #9, 'UNSPECIFIED' ) ;
#261 = CARTESIAN_POINT ( 'NONE',  ( 2.937051094012658998E-15, -1.030178847356123745E-16, 0.8412048666385887330 ) ) ;
#262 = ORIENTED_EDGE ( 'NONE', *, *, #179, .F. ) ;
#263 = APPLICATION_CONTEXT ( 'configuration controlled 3d designs of mechanical parts and assemblies' ) ;
#264 = VERTEX_POINT ( 'NONE', #296 ) ;
#265 = APPLICATION_CONTEXT ( 'configuration controlled 3d designs of mechanical parts and assemblies' ) ;
#266 = EDGE_CURVE ( 'NONE', #321, #112, #122, .T. ) ;
#267 = CARTESIAN_POINT ( 'NONE',  ( 1.606081415867841091E-13, 8.248678804640112840E-33, 46.00000000000000000 ) ) ;
#268 = CARTESIAN_POINT ( 'NONE',  ( 4.189777606611760026E-14, 1.049831847863292936E-32, 12.00000000000000000 ) ) ;
#269 = EDGE_CURVE ( 'NONE', #318, #264, #176, .T. ) ;
#270 = CARTESIAN_POINT ( 'NONE',  ( 4.189777606611760026E-14, -1.469576158976823947E-15, 12.00000000000000000 ) ) ;
#271 = CIRCLE ( 'NONE', #292, 1.399999999999993028 ) ;
#272 = ADVANCED_BREP_SHAPE_REPRESENTATION ( '42339', ( #156, #165, #218 ), #330 ) ;
#273 = DIRECTION ( 'NONE',  ( -2.382254525458723780E-15, -0.7071067811865453523, -0.7071067811865496822 ) ) ;
#274 = EDGE_LOOP ( 'NONE', ( #77, #256, #212 ) ) ;
#275 = DIRECTION ( 'NONE',  ( 0.0000000000000000000, 1.000000000000000000, 0.0000000000000000000 ) ) ;
#276 = CARTESIAN_POINT ( 'NONE',  ( 2.937051094012658998E-15, -1.030178847356123745E-16, 0.8412048666385887330 ) ) ;
#277 = AXIS2_PLACEMENT_3D ( 'NONE', #288, #155, #42 ) ;
#278 = CIRCLE ( 'NONE', #283, 1.399999999999997247 ) ;
#279 = ORIENTED_EDGE ( 'NONE', *, *, #39, .T. ) ;
#280 = DIRECTION ( 'NONE',  ( -3.491481338843133355E-15, 1.224646799147353207E-16, -1.000000000000000000 ) ) ;
#281 = ORIENTED_EDGE ( 'NONE', *, *, #76, .F. ) ;
#282 = DIRECTION ( 'NONE',  ( -3.491481338843133355E-15, 1.224646799147353207E-16, -1.000000000000000000 ) ) ;
#283 = AXIS2_PLACEMENT_3D ( 'NONE', #146, #140, #244 ) ;
#284 = CYLINDRICAL_SURFACE ( 'NONE', #56, 1.399999999999992362 ) ;
#285 = PERSON_AND_ORGANIZATION ( #329, #59 ) ;
#286 = AXIS2_PLACEMENT_3D ( 'NONE', #221, #127, #337 ) ;
#287 = APPROVAL_ROLE ( '' ) ;
#288 = CARTESIAN_POINT ( 'NONE',  ( 2.937051094012658998E-15, -1.030178847356123745E-16, 0.8412048666385887330 ) ) ;
#289 = EDGE_CURVE ( 'NONE', #161, #205, #278, .T. ) ;
#290 = DIRECTION ( 'NONE',  ( 1.798245827342160317E-15, -0.8571673007021098911, 0.5150380749100582634 ) ) ;
#291 = ORIENTED_EDGE ( 'NONE', *, *, #289, .T. ) ;
#292 = AXIS2_PLACEMENT_3D ( 'NONE', #270, #297, #250 ) ;
#293 = DIRECTION ( 'NONE',  ( 0.0000000000000000000, 1.000000000000000000, 0.0000000000000000000 ) ) ;
#294 =( NAMED_UNIT ( * ) SI_UNIT ( $, .STERADIAN. ) SOLID_ANGLE_UNIT ( ) );
#295 = ADVANCED_FACE ( 'NONE', ( #225 ), #139, .T. ) ;
#296 = CARTESIAN_POINT ( 'NONE',  ( 1.602375002358510612E-13, -1.100000000000002975, 46.00000000000000000 ) ) ;
#297 = DIRECTION ( 'NONE',  ( -3.491481338843133355E-15, 1.224646799147353207E-16, -1.000000000000000000 ) ) ;
#298 = VECTOR ( 'NONE', #290, 1000.000000000000000 ) ;
#299 = CARTESIAN_POINT ( 'NONE',  ( 1.606081415867841091E-13, -5.633375276077824704E-15, 46.00000000000000000 ) ) ;
#300 = CC_DESIGN_PERSON_AND_ORGANIZATION_ASSIGNMENT ( #285, #255, ( #334 ) ) ;
#301 = DIRECTION ( 'NONE',  ( -3.491481338843133355E-15, 1.224646799147353207E-16, -1.000000000000000000 ) ) ;
#302 = APPLICATION_PROTOCOL_DEFINITION ( 'international standard', 'config_control_design', 1994, #263 ) ;
#303 = AXIS2_PLACEMENT_3D ( 'NONE', #90, #301, #175 ) ;
#304 = VECTOR ( 'NONE', #273, 1000.000000000000000 ) ;
#305 = ADVANCED_FACE ( 'NONE', ( #61 ), #57, .T. ) ;
#306 = DIRECTION ( 'NONE',  ( -5.502656983963564665E-31, -1.000000000000000000, -1.548860246407872951E-16 ) ) ;
#307 = AXIS2_PLACEMENT_3D ( 'NONE', #4, #71, #129 ) ;
#308 = LOCAL_TIME ( 9, 22, 24.00000000000000000, #67 ) ;
#309 = ORIENTED_EDGE ( 'NONE', *, *, #91, .F. ) ;
#310 = FACE_OUTER_BOUND ( 'NONE', #69, .T. ) ;
#311 = APPROVAL_DATE_TIME ( #97, #208 ) ;
#312 = FACE_OUTER_BOUND ( 'NONE', #274, .T. ) ;
#313 = SHAPE_DEFINITION_REPRESENTATION ( #24, #272 ) ;
#314 = AXIS2_PLACEMENT_3D ( 'NONE', #60, #163, #34 ) ;
#315 = EDGE_CURVE ( 'NONE', #264, #205, #325, .T. ) ;
#316 = DATE_AND_TIME ( #8, #182 ) ;
#317 = ORIENTED_EDGE ( 'NONE', *, *, #315, .T. ) ;
#318 = VERTEX_POINT ( 'NONE', #142 ) ;
#319 = CARTESIAN_POINT ( 'NONE',  ( 3.108501645893287969E-15, 1.399999999999991473, 0.8412048666385889550 ) ) ;
#320 = ADVANCED_FACE ( 'NONE', ( #252 ), #102, .T. ) ;
#321 = VERTEX_POINT ( 'NONE', #51 ) ;
#322 = AXIS2_PLACEMENT_3D ( 'NONE', #267, #138, #249 ) ;
#323 = CARTESIAN_POINT ( 'NONE',  ( 1.607428527346903405E-13, -1.100000000000002975, 46.00000000000000000 ) ) ;
#324 = DIRECTION ( 'NONE',  ( 5.502656983963564665E-31, 1.000000000000000000, 1.548860246407872951E-16 ) ) ;
#325 = LINE ( 'NONE', #323, #304 ) ;
#326 = ORIENTED_EDGE ( 'NONE', *, *, #201, .T. ) ;
#327 = PRODUCT_DEFINITION ( 'UNKNOWN', '', #334, #196 ) ;
#328 = DIRECTION ( 'NONE',  ( 3.491481338843133355E-15, -1.224646799147353207E-16, 1.000000000000000000 ) ) ;
#329 = PERSON ( 'UNSPECIFIED', 'UNSPECIFIED', 'UNSPECIFIED', ('UNSPECIFIED'), ('UNSPECIFIED'), ('UNSPECIFIED') ) ;
#330 =( GEOMETRIC_REPRESENTATION_CONTEXT ( 3 ) GLOBAL_UNCERTAINTY_ASSIGNED_CONTEXT ( ( #149 ) ) GLOBAL_UNIT_ASSIGNED_CONTEXT ( ( #220, #133, #294 ) ) REPRESENTATION_CONTEXT ( 'NONE', 'WORKASPACE' ) );
#331 = EDGE_CURVE ( 'NONE', #205, #194, #106, .T. ) ;
#332 = SECURITY_CLASSIFICATION_LEVEL ( 'unclassified' ) ;
#333 = ORIENTED_EDGE ( 'NONE', *, *, #193, .F. ) ;
#334 = PRODUCT_DEFINITION_FORMATION_WITH_SPECIFIED_SOURCE ( 'ANY', '', #217, .NOT_KNOWN. ) ;
#335 = EDGE_LOOP ( 'NONE', ( #333, #145, #326, #62 ) ) ;
#336 = DIRECTION ( 'NONE',  ( 3.491481338843133355E-15, -1.224646799147353207E-16, 1.000000000000000000 ) ) ;
#337 = DIRECTION ( 'NONE',  ( 0.0000000000000000000, 1.000000000000000000, 0.0000000000000000000 ) ) ;
ENDSEC;
END-ISO-10303-21;
