ISO-10303-21;
HEADER;
FILE_DESCRIPTION (( 'STEP AP203' ),
    '1' );
FILE_NAME ('42329.step',
    '2021-11-01T10:35:15',
    ( '' ),
    ( '' ),
    'SwSTEP 2.0',
    'SolidWorks 2019',
    '' );
FILE_SCHEMA (( 'CONFIG_CONTROL_DESIGN' ));
ENDSEC;

DATA;
#1 = EDGE_LOOP ( 'NONE', ( #187 ) ) ;
#2 = DIRECTION ( 'NONE',  ( 0.0000000000000000000, 1.000000000000000000, 0.0000000000000000000 ) ) ;
#3 = CARTESIAN_POINT ( 'NONE',  ( -5.143026669786782884E-31, -4.467482701150642596E-33, -1.473021382806780580E-16 ) ) ;
#4 = AXIS2_PLACEMENT_3D ( 'NONE', #174, #22, #160 ) ;
#5 = EDGE_LOOP ( 'NONE', ( #186 ) ) ;
#6 =( NAMED_UNIT ( * ) SI_UNIT ( $, .STERADIAN. ) SOLID_ANGLE_UNIT ( ) );
#7 = VERTEX_POINT ( 'NONE', #60 ) ;
#8 = EDGE_CURVE ( 'NONE', #194, #194, #99, .T. ) ;
#9 = TOROIDAL_SURFACE ( 'NONE', #165, 9.199999999999999289, 8.000000000000000000 ) ;
#10 = AXIS2_PLACEMENT_3D ( 'NONE', #149, #29, #93 ) ;
#11 = FACE_BOUND ( 'NONE', #1, .T. ) ;
#12 = ADVANCED_FACE ( 'NONE', ( #91, #68 ), #9, .F. ) ;
#13 = DIRECTION ( 'NONE',  ( -3.491481338843133355E-15, 1.224646799147353207E-16, -1.000000000000000000 ) ) ;
#14 = DATE_AND_TIME ( #96, #39 ) ;
#15 = DATE_AND_TIME ( #126, #48 ) ;
#16 = COORDINATED_UNIVERSAL_TIME_OFFSET ( 1, 0, .AHEAD. ) ;
#17 = AXIS2_PLACEMENT_3D ( 'NONE', #3, #70, #140 ) ;
#18 = APPROVAL_PERSON_ORGANIZATION ( #221, #94, #87 ) ;
#19 = DATE_AND_TIME ( #216, #101 ) ;
#20 = PERSON_AND_ORGANIZATION ( #131, #136 ) ;
#21 = CARTESIAN_POINT ( 'NONE',  ( 2.444036937190193033E-14, -8.592624733039555931E-16, 6.999999999999999112 ) ) ;
#22 = DIRECTION ( 'NONE',  ( -3.491481338843133355E-15, 1.227517819005651059E-16, -1.000000000000000000 ) ) ;
#23 = MANIFOLD_SOLID_BREP ( 'Corps-Déplacer/Copier1[1]', #85 ) ;
#24 = DIRECTION ( 'NONE',  ( 3.491481338843133355E-15, -1.227517819005651059E-16, 1.000000000000000000 ) ) ;
#25 = CARTESIAN_POINT ( 'NONE',  ( 2.444036937190193033E-14, 0.0000000000000000000, 6.999999999999999112 ) ) ;
#26 = CARTESIAN_POINT ( 'NONE',  ( 2.444036937190193033E-14, -1.200000000000001510, 6.999999999999999112 ) ) ;
#27 = AXIS2_PLACEMENT_3D ( 'NONE', #143, #159, #2 ) ;
#28 = CARTESIAN_POINT ( 'NONE',  ( 2.444036937190193033E-14, -1.200000000000001510, 6.999999999999999112 ) ) ;
#29 = DIRECTION ( 'NONE',  ( -3.491481338843133355E-15, 1.224646799147353207E-16, -1.000000000000000000 ) ) ;
#30 = VERTEX_POINT ( 'NONE', #26 ) ;
#31 = PERSON_AND_ORGANIZATION ( #131, #136 ) ;
#32 = ORIENTED_EDGE ( 'NONE', *, *, #119, .F. ) ;
#33 = ADVANCED_FACE ( 'NONE', ( #191 ), #175, .F. ) ;
#34 = MECHANICAL_CONTEXT ( 'NONE', #135, 'mechanical' ) ;
#35 = ORIENTED_EDGE ( 'NONE', *, *, #110, .F. ) ;
#36 = EDGE_CURVE ( 'NONE', #30, #30, #107, .T. ) ;
#37 = APPROVAL_ROLE ( '' ) ;
#38 = ORIENTED_EDGE ( 'NONE', *, *, #152, .T. ) ;
#39 = LOCAL_TIME ( 11, 35, 15.00000000000000000, #188 ) ;
#40 = DIRECTION ( 'NONE',  ( 3.491481338843133355E-15, -1.224646799147353207E-16, 1.000000000000000000 ) ) ;
#41 = DIRECTION ( 'NONE',  ( 3.491481338843133355E-15, -1.227517819005651059E-16, 1.000000000000000000 ) ) ;
#42 = CARTESIAN_POINT ( 'NONE',  ( 2.444036937190193033E-14, -8.592624733039555931E-16, 6.999999999999999112 ) ) ;
#43 = AXIS2_PLACEMENT_3D ( 'NONE', #211, #148, #76 ) ;
#44 = FACE_OUTER_BOUND ( 'NONE', #82, .T. ) ;
#45 = PRODUCT_DEFINITION ( 'UNKNOWN', '', #127, #55 ) ;
#46 = DIRECTION ( 'NONE',  ( 0.0000000000000000000, 0.0000000000000000000, 1.000000000000000000 ) ) ;
#47 = CARTESIAN_POINT ( 'NONE',  ( 1.316288464743861212E-13, -4.616918432785521081E-15, 37.69999999999999574 ) ) ;
#48 = LOCAL_TIME ( 11, 35, 15.00000000000000000, #115 ) ;
#49 = COORDINATED_UNIVERSAL_TIME_OFFSET ( 1, 0, .AHEAD. ) ;
#50 = EDGE_LOOP ( 'NONE', ( #102 ) ) ;
#51 = PERSON_AND_ORGANIZATION ( #131, #136 ) ;
#52 = CONICAL_SURFACE ( 'NONE', #193, 1.199999999999997957, 0.7853981633974450594 ) ;
#53 = CALENDAR_DATE ( 2021, 1, 11 ) ;
#54 = EDGE_LOOP ( 'NONE', ( #113 ) ) ;
#55 = DESIGN_CONTEXT ( 'detailed design', #154, 'design' ) ;
#56 = DIRECTION ( 'NONE',  ( -4.275831445896958607E-31, -1.000000000000000000, -1.224646799147353207E-16 ) ) ;
#57 = CC_DESIGN_PERSON_AND_ORGANIZATION_ASSIGNMENT ( #20, #150, ( #45 ) ) ;
#58 = CLOSED_SHELL ( 'NONE', ( #72, #164, #214 ) ) ;
#59 =( LENGTH_UNIT ( ) NAMED_UNIT ( * ) SI_UNIT ( .MILLI., .METRE. ) );
#60 = CARTESIAN_POINT ( 'NONE',  ( 1.326762908760390423E-13, 1.199999999999993294, 38.00000000000000000 ) ) ;
#61 = AXIS2_PLACEMENT_3D ( 'NONE', #103, #40, #173 ) ;
#62 = VERTEX_POINT ( 'NONE', #177 ) ;
#63 = PERSON_AND_ORGANIZATION ( #131, #136 ) ;
#64 = PERSON_AND_ORGANIZATION ( #131, #136 ) ;
#65 = PERSON_AND_ORGANIZATION_ROLE ( 'design_supplier' ) ;
#66 = ORIENTED_EDGE ( 'NONE', *, *, #36, .F. ) ;
#67 = ORIENTED_EDGE ( 'NONE', *, *, #119, .T. ) ;
#68 = FACE_OUTER_BOUND ( 'NONE', #100, .T. ) ;
#69 = APPROVAL ( #169, 'UNSPECIFIED' ) ;
#70 = DIRECTION ( 'NONE',  ( 3.491481338843133355E-15, -1.227517819005651059E-16, 1.000000000000000000 ) ) ;
#71 = FACE_OUTER_BOUND ( 'NONE', #90, .T. ) ;
#72 = ADVANCED_FACE ( 'NONE', ( #163 ), #117, .T. ) ;
#73 = DIRECTION ( 'NONE',  ( 0.0000000000000000000, -1.000000000000000000, 0.0000000000000000000 ) ) ;
#74 = DIRECTION ( 'NONE',  ( 0.0000000000000000000, 1.000000000000000000, 0.0000000000000000000 ) ) ;
#75 = CIRCLE ( 'NONE', #79, 1.499999999999997558 ) ;
#76 = DIRECTION ( 'NONE',  ( -4.275831445896958607E-31, -1.000000000000000000, -1.224646799147353207E-16 ) ) ;
#77 = VERTEX_POINT ( 'NONE', #215 ) ;
#78 = DIRECTION ( 'NONE',  ( -3.491481338843133355E-15, 1.224646799147353207E-16, -1.000000000000000000 ) ) ;
#79 = AXIS2_PLACEMENT_3D ( 'NONE', #47, #166, #123 ) ;
#80 = APPROVAL_ROLE ( '' ) ;
#81 = PERSON_AND_ORGANIZATION_ROLE ( 'classification_officer' ) ;
#82 = EDGE_LOOP ( 'NONE', ( #220 ) ) ;
#83 = APPLICATION_PROTOCOL_DEFINITION ( 'international standard', 'config_control_design', 1994, #154 ) ;
#84 = ORIENTED_EDGE ( 'NONE', *, *, #110, .T. ) ;
#85 = CLOSED_SHELL ( 'NONE', ( #147, #141, #128, #12, #33 ) ) ;
#86 = LOCAL_TIME ( 11, 35, 15.00000000000000000, #49 ) ;
#87 = APPROVAL_ROLE ( '' ) ;
#88 = COORDINATED_UNIVERSAL_TIME_OFFSET ( 1, 0, .AHEAD. ) ;
#89 = EDGE_CURVE ( 'NONE', #7, #7, #118, .T. ) ;
#90 = EDGE_LOOP ( 'NONE', ( #192 ) ) ;
#91 = FACE_OUTER_BOUND ( 'NONE', #50, .T. ) ;
#92 = PRODUCT_RELATED_PRODUCT_CATEGORY ( 'detail', '', ( #185 ) ) ;
#93 = DIRECTION ( 'NONE',  ( 4.275831445896958607E-31, 1.000000000000000000, 1.224646799147353207E-16 ) ) ;
#94 = APPROVAL ( #206, 'UNSPECIFIED' ) ;
#95 = CYLINDRICAL_SURFACE ( 'NONE', #183, 1.199999999999999956 ) ;
#96 = CALENDAR_DATE ( 2021, 1, 11 ) ;
#97 = PERSON_AND_ORGANIZATION ( #131, #136 ) ;
#98 = PERSON_AND_ORGANIZATION_ROLE ( 'design_owner' ) ;
#99 = CIRCLE ( 'NONE', #161, 1.200000000000000622 ) ;
#100 = EDGE_LOOP ( 'NONE', ( #67 ) ) ;
#101 = LOCAL_TIME ( 11, 35, 15.00000000000000000, #88 ) ;
#102 = ORIENTED_EDGE ( 'NONE', *, *, #36, .T. ) ;
#103 = CARTESIAN_POINT ( 'NONE',  ( 2.444036937190193349E-14, 1.124819836996387322E-32, 7.000000000000000000 ) ) ;
#104 = DIRECTION ( 'NONE',  ( 3.491481338843133355E-15, -1.227517819005651059E-16, 1.000000000000000000 ) ) ;
#105 =( GEOMETRIC_REPRESENTATION_CONTEXT ( 3 ) GLOBAL_UNCERTAINTY_ASSIGNED_CONTEXT ( ( #138 ) ) GLOBAL_UNIT_ASSIGNED_CONTEXT ( ( #59, #111, #6 ) ) REPRESENTATION_CONTEXT ( 'NONE', 'WORKASPACE' ) );
#106 = CYLINDRICAL_SURFACE ( 'NONE', #172, 1.499999999999995781 ) ;
#107 = CIRCLE ( 'NONE', #218, 1.200000000000000622 ) ;
#108 = FACE_OUTER_BOUND ( 'NONE', #156, .T. ) ;
#109 = DIRECTION ( 'NONE',  ( -4.285855558155652404E-31, -1.000000000000000000, -1.227517819005650812E-16 ) ) ;
#110 = EDGE_CURVE ( 'NONE', #144, #144, #155, .T. ) ;
#111 =( NAMED_UNIT ( * ) PLANE_ANGLE_UNIT ( ) SI_UNIT ( $, .RADIAN. ) );
#112 = APPROVAL_STATUS ( 'not_yet_approved' ) ;
#113 = ORIENTED_EDGE ( 'NONE', *, *, #152, .F. ) ;
#114 = CC_DESIGN_SECURITY_CLASSIFICATION ( #168, ( #127 ) ) ;
#115 = COORDINATED_UNIVERSAL_TIME_OFFSET ( 1, 0, .AHEAD. ) ;
#116 = PERSON_AND_ORGANIZATION ( #131, #136 ) ;
#117 = PLANE ( 'NONE',  #61 ) ;
#118 = CIRCLE ( 'NONE', #27, 1.199999999999997957 ) ;
#119 = EDGE_CURVE ( 'NONE', #77, #77, #158, .T. ) ;
#120 = EDGE_LOOP ( 'NONE', ( #38 ) ) ;
#121 = CC_DESIGN_APPROVAL ( #69, ( #168 ) ) ;
#122 = PLANE ( 'NONE',  #43 ) ;
#123 = DIRECTION ( 'NONE',  ( 0.0000000000000000000, 1.000000000000000000, 0.0000000000000000000 ) ) ;
#124 = FACE_OUTER_BOUND ( 'NONE', #120, .T. ) ;
#125 = AXIS2_PLACEMENT_3D ( 'NONE', #196, #46, #157 ) ;
#126 = CALENDAR_DATE ( 2021, 1, 11 ) ;
#127 = PRODUCT_DEFINITION_FORMATION_WITH_SPECIFIED_SOURCE ( 'ANY', '', #185, .NOT_KNOWN. ) ;
#128 = ADVANCED_FACE ( 'NONE', ( #71 ), #142, .F. ) ;
#129 = SECURITY_CLASSIFICATION_LEVEL ( 'unclassified' ) ;
#130 = EDGE_LOOP ( 'NONE', ( #84 ) ) ;
#131 = PERSON ( 'UNSPECIFIED', 'UNSPECIFIED', 'UNSPECIFIED', ('UNSPECIFIED'), ('UNSPECIFIED'), ('UNSPECIFIED') ) ;
#132 = DATE_AND_TIME ( #53, #86 ) ;
#133 = APPROVAL_DATE_TIME ( #132, #176 ) ;
#134 = CC_DESIGN_DATE_AND_TIME_ASSIGNMENT ( #19, #184, ( #45 ) ) ;
#135 = APPLICATION_CONTEXT ( 'configuration controlled 3d designs of mechanical parts and assemblies' ) ;
#136 = ORGANIZATION ( 'UNSPECIFIED', 'UNSPECIFIED', '' ) ;
#137 = DIRECTION ( 'NONE',  ( -4.347612056767884799E-31, -1.000000000000000000, -1.227517819005651059E-16 ) ) ;
#138 = UNCERTAINTY_MEASURE_WITH_UNIT (LENGTH_MEASURE( 1.000000000000000082E-05 ), #59, 'distance_accuracy_value', 'NONE');
#139 = DIRECTION ( 'NONE',  ( 3.491481338843133355E-15, -1.224646799147353207E-16, 1.000000000000000000 ) ) ;
#140 = DIRECTION ( 'NONE',  ( -4.285855558155653280E-31, -1.000000000000000000, -1.227517819005651305E-16 ) ) ;
#141 = ADVANCED_FACE ( 'NONE', ( #167, #11 ), #52, .T. ) ;
#142 = PLANE ( 'NONE',  #10 ) ;
#143 = CARTESIAN_POINT ( 'NONE',  ( 1.326762908760390423E-13, -4.653657836759941941E-15, 38.00000000000000000 ) ) ;
#144 = VERTEX_POINT ( 'NONE', #181 ) ;
#145 = CARTESIAN_POINT ( 'NONE',  ( 1.326762908760390423E-13, -4.653657836759941941E-15, 38.00000000000000000 ) ) ;
#146 = DIRECTION ( 'NONE',  ( 3.491481338843133355E-15, -1.227517819005651059E-16, 1.000000000000000000 ) ) ;
#147 = ADVANCED_FACE ( 'NONE', ( #124, #108 ), #106, .T. ) ;
#148 = DIRECTION ( 'NONE',  ( 3.491481338843133355E-15, -1.224646799147353207E-16, 1.000000000000000000 ) ) ;
#149 = CARTESIAN_POINT ( 'NONE',  ( 1.326762908760390423E-13, 8.998558695971062171E-33, 38.00000000000000000 ) ) ;
#150 = PERSON_AND_ORGANIZATION_ROLE ( 'creator' ) ;
#151 = APPROVAL_DATE_TIME ( #15, #69 ) ;
#152 = EDGE_CURVE ( 'NONE', #62, #62, #75, .T. ) ;
#153 = APPROVAL_DATE_TIME ( #202, #94 ) ;
#154 = APPLICATION_CONTEXT ( 'configuration controlled 3d designs of mechanical parts and assemblies' ) ;
#155 = CIRCLE ( 'NONE', #17, 1.199999999999999289 ) ;
#156 = EDGE_LOOP ( 'NONE', ( #32 ) ) ;
#157 = DIRECTION ( 'NONE',  ( 1.000000000000000000, 0.0000000000000000000, 0.0000000000000000000 ) ) ;
#158 = CIRCLE ( 'NONE', #4, 1.499999999999995781 ) ;
#159 = DIRECTION ( 'NONE',  ( -3.491481338843133355E-15, 1.224646799147353207E-16, -1.000000000000000000 ) ) ;
#160 = DIRECTION ( 'NONE',  ( 0.0000000000000000000, 1.000000000000000000, 0.0000000000000000000 ) ) ;
#161 = AXIS2_PLACEMENT_3D ( 'NONE', #42, #104, #190 ) ;
#162 = CC_DESIGN_APPROVAL ( #176, ( #45 ) ) ;
#163 = FACE_OUTER_BOUND ( 'NONE', #5, .T. ) ;
#164 = ADVANCED_FACE ( 'NONE', ( #200, #44 ), #95, .T. ) ;
#165 = AXIS2_PLACEMENT_3D ( 'NONE', #25, #41, #137 ) ;
#166 = DIRECTION ( 'NONE',  ( -3.491481338843133355E-15, 1.224646799147353207E-16, -1.000000000000000000 ) ) ;
#167 = FACE_OUTER_BOUND ( 'NONE', #54, .T. ) ;
#168 = SECURITY_CLASSIFICATION ( '', '', #129 ) ;
#169 = APPROVAL_STATUS ( 'not_yet_approved' ) ;
#170 = APPROVAL_PERSON_ORGANIZATION ( #97, #176, #80 ) ;
#171 = MANIFOLD_SOLID_BREP ( 'Corps-Déplacer/Copier1[2]', #58 ) ;
#172 = AXIS2_PLACEMENT_3D ( 'NONE', #199, #78, #209 ) ;
#173 = DIRECTION ( 'NONE',  ( -4.275831445896958607E-31, -1.000000000000000000, -1.224646799147353207E-16 ) ) ;
#174 = CARTESIAN_POINT ( 'NONE',  ( 3.201776876318363735E-14, -2.664024771102683457E-16, 9.170253441421055030 ) ) ;
#175 = PLANE ( 'NONE',  #197 ) ;
#176 = APPROVAL ( #112, 'UNSPECIFIED' ) ;
#177 = CARTESIAN_POINT ( 'NONE',  ( 1.316288464743861212E-13, 1.499999999999993117, 37.69999999999999574 ) ) ;
#178 = PRODUCT_DEFINITION_SHAPE ( 'NONE', 'NONE',  #45 ) ;
#179 = APPLICATION_PROTOCOL_DEFINITION ( 'international standard', 'config_control_design', 1994, #135 ) ;
#180 = CARTESIAN_POINT ( 'NONE',  ( -6.413731847436034514E-31, 0.0000000000000000000, -1.836965810494968570E-16 ) ) ;
#181 = CARTESIAN_POINT ( 'NONE',  ( -1.028605333957356402E-30, -1.199999999999999289, -2.946042765613561160E-16 ) ) ;
#182 = CC_DESIGN_DATE_AND_TIME_ASSIGNMENT ( #14, #204, ( #168 ) ) ;
#183 = AXIS2_PLACEMENT_3D ( 'NONE', #180, #146, #109 ) ;
#184 = DATE_TIME_ROLE ( 'creation_date' ) ;
#185 = PRODUCT ( '42329', '42329', '', ( #34 ) ) ;
#186 = ORIENTED_EDGE ( 'NONE', *, *, #8, .T. ) ;
#187 = ORIENTED_EDGE ( 'NONE', *, *, #89, .T. ) ;
#188 = COORDINATED_UNIVERSAL_TIME_OFFSET ( 1, 0, .AHEAD. ) ;
#189 = CC_DESIGN_PERSON_AND_ORGANIZATION_ASSIGNMENT ( #64, #98, ( #185 ) ) ;
#190 = DIRECTION ( 'NONE',  ( 0.0000000000000000000, -1.000000000000000000, 0.0000000000000000000 ) ) ;
#191 = FACE_OUTER_BOUND ( 'NONE', #222, .T. ) ;
#192 = ORIENTED_EDGE ( 'NONE', *, *, #89, .F. ) ;
#193 = AXIS2_PLACEMENT_3D ( 'NONE', #145, #13, #74 ) ;
#194 = VERTEX_POINT ( 'NONE', #28 ) ;
#195 = CC_DESIGN_PERSON_AND_ORGANIZATION_ASSIGNMENT ( #116, #81, ( #168 ) ) ;
#196 = CARTESIAN_POINT ( 'NONE',  ( 0.0000000000000000000, 0.0000000000000000000, 0.0000000000000000000 ) ) ;
#197 = AXIS2_PLACEMENT_3D ( 'NONE', #208, #139, #56 ) ;
#198 = LOCAL_TIME ( 11, 35, 15.00000000000000000, #16 ) ;
#199 = CARTESIAN_POINT ( 'NONE',  ( 0.0000000000000000000, 0.0000000000000000000, 0.0000000000000000000 ) ) ;
#200 = FACE_OUTER_BOUND ( 'NONE', #130, .T. ) ;
#201 = CC_DESIGN_PERSON_AND_ORGANIZATION_ASSIGNMENT ( #63, #207, ( #127 ) ) ;
#202 = DATE_AND_TIME ( #219, #198 ) ;
#203 = APPROVAL_PERSON_ORGANIZATION ( #51, #69, #37 ) ;
#204 = DATE_TIME_ROLE ( 'classification_date' ) ;
#205 = EDGE_LOOP ( 'NONE', ( #35 ) ) ;
#206 = APPROVAL_STATUS ( 'not_yet_approved' ) ;
#207 = PERSON_AND_ORGANIZATION_ROLE ( 'creator' ) ;
#208 = CARTESIAN_POINT ( 'NONE',  ( 2.444036937190193349E-14, 1.124819836996387322E-32, 7.000000000000000000 ) ) ;
#209 = DIRECTION ( 'NONE',  ( 4.275831445896958607E-31, 1.000000000000000000, 1.224646799147353207E-16 ) ) ;
#210 = FACE_OUTER_BOUND ( 'NONE', #205, .T. ) ;
#211 = CARTESIAN_POINT ( 'NONE',  ( -6.413803915257455362E-31, 2.249659577954771652E-32, -1.836986451539392583E-16 ) ) ;
#212 = ADVANCED_BREP_SHAPE_REPRESENTATION ( '42329', ( #23, #171, #125 ), #105 ) ;
#213 = CC_DESIGN_APPROVAL ( #94, ( #127 ) ) ;
#214 = ADVANCED_FACE ( 'NONE', ( #210 ), #122, .F. ) ;
#215 = CARTESIAN_POINT ( 'NONE',  ( 3.201776876318363735E-14, 1.499999999999995559, 9.170253441421055030 ) ) ;
#216 = CALENDAR_DATE ( 2021, 1, 11 ) ;
#217 = SHAPE_DEFINITION_REPRESENTATION ( #178, #212 ) ;
#218 = AXIS2_PLACEMENT_3D ( 'NONE', #21, #24, #73 ) ;
#219 = CALENDAR_DATE ( 2021, 1, 11 ) ;
#220 = ORIENTED_EDGE ( 'NONE', *, *, #8, .F. ) ;
#221 = PERSON_AND_ORGANIZATION ( #131, #136 ) ;
#222 = EDGE_LOOP ( 'NONE', ( #66 ) ) ;
#223 = CC_DESIGN_PERSON_AND_ORGANIZATION_ASSIGNMENT ( #31, #65, ( #127 ) ) ;
ENDSEC;
END-ISO-10303-21;
