ISO-10303-21;
HEADER;
FILE_DESCRIPTION (( 'STEP AP203' ),
    '1' );
FILE_NAME ('42305.step',
    '2021-10-15T13:34:52',
    ( '' ),
    ( '' ),
    'SwSTEP 2.0',
    'SolidWorks 2019',
    '' );
FILE_SCHEMA (( 'CONFIG_CONTROL_DESIGN' ));
ENDSEC;

DATA;
#1 = DIRECTION ( 'NONE',  ( -3.491481338843133355E-15, 1.224646799147353207E-16, -1.000000000000000000 ) ) ;
#2 = ADVANCED_FACE ( 'NONE', ( #17, #65 ), #8, .T. ) ;
#3 = EDGE_LOOP ( 'NONE', ( #113 ) ) ;
#4 = CC_DESIGN_APPROVAL ( #74, ( #160 ) ) ;
#5 = CARTESIAN_POINT ( 'NONE',  ( 1.920314736363723472E-13, 1.499999999999994893, 55.00000000000000000 ) ) ;
#6 = CARTESIAN_POINT ( 'NONE',  ( 7.681258945454893382E-14, -2.694222958124176809E-15, 22.00000000000000000 ) ) ;
#7 = CARTESIAN_POINT ( 'NONE',  ( 7.681258945454893382E-14, 1.499759782661852134E-32, 22.00000000000000000 ) ) ;
#8 = CONICAL_SURFACE ( 'NONE', #179, 1.500000000000001554, 0.7853981633974407295 ) ;
#9 = APPLICATION_CONTEXT ( 'configuration controlled 3d designs of mechanical parts and assemblies' ) ;
#10 = DIRECTION ( 'NONE',  ( -3.491481338843133355E-15, 1.224646799147353207E-16, -1.000000000000000000 ) ) ;
#11 = APPROVAL_ROLE ( '' ) ;
#12 = PRODUCT_DEFINITION_SHAPE ( 'NONE', 'NONE',  #111 ) ;
#13 = APPROVAL_STATUS ( 'not_yet_approved' ) ;
#14 = EDGE_CURVE ( 'NONE', #180, #180, #191, .T. ) ;
#15 = PERSON_AND_ORGANIZATION_ROLE ( 'design_owner' ) ;
#16 = PERSON_AND_ORGANIZATION_ROLE ( 'creator' ) ;
#17 = FACE_OUTER_BOUND ( 'NONE', #79, .T. ) ;
#18 = APPROVAL_PERSON_ORGANIZATION ( #103, #193, #31 ) ;
#19 = DIRECTION ( 'NONE',  ( 4.275831445896958607E-31, 1.000000000000000000, 1.224646799147353207E-16 ) ) ;
#20 = ORGANIZATION ( 'UNSPECIFIED', 'UNSPECIFIED', '' ) ;
#21 = FACE_OUTER_BOUND ( 'NONE', #189, .T. ) ;
#22 = APPLICATION_CONTEXT ( 'configuration controlled 3d designs of mechanical parts and assemblies' ) ;
#23 = ADVANCED_FACE ( 'NONE', ( #50 ), #37, .F. ) ;
#24 = APPROVAL_PERSON_ORGANIZATION ( #32, #74, #29 ) ;
#25 = DIRECTION ( 'NONE',  ( 0.0000000000000000000, 1.000000000000000000, 0.0000000000000000000 ) ) ;
#26 = PERSON_AND_ORGANIZATION_ROLE ( 'creator' ) ;
#27 = DATE_AND_TIME ( #151, #72 ) ;
#28 = ADVANCED_FACE ( 'NONE', ( #164, #115 ), #145, .T. ) ;
#29 = APPROVAL_ROLE ( '' ) ;
#30 = CIRCLE ( 'NONE', #77, 1.999999999999997335 ) ;
#31 = APPROVAL_ROLE ( '' ) ;
#32 = PERSON_AND_ORGANIZATION ( #187, #20 ) ;
#33 = AXIS2_PLACEMENT_3D ( 'NONE', #129, #182, #25 ) ;
#34 = EDGE_LOOP ( 'NONE', ( #159 ) ) ;
#35 = CC_DESIGN_PERSON_AND_ORGANIZATION_ASSIGNMENT ( #168, #16, ( #105 ) ) ;
#36 = DIRECTION ( 'NONE',  ( -3.491481338843133355E-15, 1.224646799147353207E-16, -1.000000000000000000 ) ) ;
#37 = PLANE ( 'NONE',  #44 ) ;
#38 = EDGE_CURVE ( 'NONE', #178, #178, #186, .T. ) ;
#39 = CARTESIAN_POINT ( 'NONE',  ( 0.0000000000000000000, 0.0000000000000000000, 0.0000000000000000000 ) ) ;
#40 =( NAMED_UNIT ( * ) PLANE_ANGLE_UNIT ( ) SI_UNIT ( $, .RADIAN. ) );
#41 = CC_DESIGN_APPROVAL ( #200, ( #111 ) ) ;
#42 = VERTEX_POINT ( 'NONE', #96 ) ;
#43 = FACE_OUTER_BOUND ( 'NONE', #192, .T. ) ;
#44 = AXIS2_PLACEMENT_3D ( 'NONE', #162, #166, #69 ) ;
#45 = APPROVAL_DATE_TIME ( #139, #200 ) ;
#46 = SHAPE_DEFINITION_REPRESENTATION ( #12, #185 ) ;
#47 = APPROVAL_STATUS ( 'not_yet_approved' ) ;
#48 = CALENDAR_DATE ( 2021, 15, 10 ) ;
#49 = EDGE_LOOP ( 'NONE', ( #109 ) ) ;
#50 = FACE_OUTER_BOUND ( 'NONE', #92, .T. ) ;
#51 = CARTESIAN_POINT ( 'NONE',  ( 2.541590561669644859E-15, -8.914699647580433686E-17, 0.7279404685324123436 ) ) ;
#52 = DIRECTION ( 'NONE',  ( 3.491481338843133355E-15, -1.224646799147353207E-16, 1.000000000000000000 ) ) ;
#53 = DIRECTION ( 'NONE',  ( 4.275831445896958607E-31, 1.000000000000000000, 1.224646799147352961E-16 ) ) ;
#54 = APPROVAL_PERSON_ORGANIZATION ( #76, #200, #11 ) ;
#55 = VERTEX_POINT ( 'NONE', #197 ) ;
#56 = EDGE_CURVE ( 'NONE', #55, #55, #30, .T. ) ;
#57 = CLOSED_SHELL ( 'NONE', ( #155, #85, #100 ) ) ;
#58 = CALENDAR_DATE ( 2021, 15, 10 ) ;
#59 = DATE_AND_TIME ( #89, #153 ) ;
#60 = PERSON_AND_ORGANIZATION ( #187, #20 ) ;
#61 = COORDINATED_UNIVERSAL_TIME_OFFSET ( 1, 0, .AHEAD. ) ;
#62 = ORIENTED_EDGE ( 'NONE', *, *, #108, .F. ) ;
#63 = MANIFOLD_SOLID_BREP ( 'Corps-Déplacer/Copier1[2]', #57 ) ;
#64 = CC_DESIGN_SECURITY_CLASSIFICATION ( #160, ( #105 ) ) ;
#65 = FACE_BOUND ( 'NONE', #203, .T. ) ;
#66 = MANIFOLD_SOLID_BREP ( 'Corps-Déplacer/Copier1[1]', #167 ) ;
#67 = DIRECTION ( 'NONE',  ( 3.851859888774481340E-31, 1.000000000000000000, 1.084202172485507146E-16 ) ) ;
#68 = CONICAL_SURFACE ( 'NONE', #183, 1.999999999999994893, 1.221730476396026610 ) ;
#69 = DIRECTION ( 'NONE',  ( 4.275831445896958607E-31, 1.000000000000000000, 1.224646799147353207E-16 ) ) ;
#70 = DIRECTION ( 'NONE',  ( 0.0000000000000000000, 1.000000000000000000, 0.0000000000000000000 ) ) ;
#71 = DIRECTION ( 'NONE',  ( -3.491481338843133355E-15, 1.224646799147353207E-16, -1.000000000000000000 ) ) ;
#72 = LOCAL_TIME ( 15, 34, 52.00000000000000000, #169 ) ;
#73 = FACE_OUTER_BOUND ( 'NONE', #3, .T. ) ;
#74 = APPROVAL ( #47, 'UNSPECIFIED' ) ;
#75 = COORDINATED_UNIVERSAL_TIME_OFFSET ( 1, 0, .AHEAD. ) ;
#76 = PERSON_AND_ORGANIZATION ( #187, #20 ) ;
#77 = AXIS2_PLACEMENT_3D ( 'NONE', #6, #83, #196 ) ;
#78 = DESIGN_CONTEXT ( 'detailed design', #9, 'design' ) ;
#79 = EDGE_LOOP ( 'NONE', ( #62 ) ) ;
#80 = DIRECTION ( 'NONE',  ( -3.851859888774481340E-31, -1.000000000000000000, -1.084202172485507146E-16 ) ) ;
#81 =( NAMED_UNIT ( * ) SI_UNIT ( $, .STERADIAN. ) SOLID_ANGLE_UNIT ( ) );
#82 = FACE_OUTER_BOUND ( 'NONE', #110, .T. ) ;
#83 = DIRECTION ( 'NONE',  ( -3.491481338843133355E-15, 1.224646799147353207E-16, -1.000000000000000000 ) ) ;
#84 = CARTESIAN_POINT ( 'NONE',  ( 7.681258945454893382E-14, 1.499759782661852134E-32, 22.00000000000000000 ) ) ;
#85 = ADVANCED_FACE ( 'NONE', ( #165, #21 ), #144, .T. ) ;
#86 = PRODUCT ( '42305', '42305', '', ( #201 ) ) ;
#87 = PERSON_AND_ORGANIZATION ( #187, #20 ) ;
#88 = AXIS2_PLACEMENT_3D ( 'NONE', #137, #118, #135 ) ;
#89 = CALENDAR_DATE ( 2021, 15, 10 ) ;
#90 = DATE_TIME_ROLE ( 'classification_date' ) ;
#91 = AXIS2_PLACEMENT_3D ( 'NONE', #7, #114, #97 ) ;
#92 = EDGE_LOOP ( 'NONE', ( #125 ) ) ;
#93 = DIRECTION ( 'NONE',  ( 0.0000000000000000000, 1.000000000000000000, 0.0000000000000000000 ) ) ;
#94 = PRODUCT_RELATED_PRODUCT_CATEGORY ( 'detail', '', ( #86 ) ) ;
#95 = ORIENTED_EDGE ( 'NONE', *, *, #56, .T. ) ;
#96 = CARTESIAN_POINT ( 'NONE',  ( 1.902857329669507363E-13, 1.999999999999994893, 54.49999999999999289 ) ) ;
#97 = DIRECTION ( 'NONE',  ( -4.275831445896958607E-31, -1.000000000000000000, -1.224646799147353207E-16 ) ) ;
#98 = AXIS2_PLACEMENT_3D ( 'NONE', #147, #10, #199 ) ;
#99 = AXIS2_PLACEMENT_3D ( 'NONE', #84, #52, #133 ) ;
#100 = ADVANCED_FACE ( 'NONE', ( #82 ), #117, .T. ) ;
#101 = CARTESIAN_POINT ( 'NONE',  ( 2.541590561669645648E-15, 1.999999999999994893, 0.7279404685324125657 ) ) ;
#102 = CIRCLE ( 'NONE', #98, 1.500000000000001554 ) ;
#103 = PERSON_AND_ORGANIZATION ( #187, #20 ) ;
#104 = PERSON_AND_ORGANIZATION_ROLE ( 'design_supplier' ) ;
#105 = PRODUCT_DEFINITION_FORMATION_WITH_SPECIFIED_SOURCE ( 'ANY', '', #86, .NOT_KNOWN. ) ;
#106 = PERSON_AND_ORGANIZATION ( #187, #20 ) ;
#107 = CALENDAR_DATE ( 2021, 15, 10 ) ;
#108 = EDGE_CURVE ( 'NONE', #42, #42, #190, .T. ) ;
#109 = ORIENTED_EDGE ( 'NONE', *, *, #14, .F. ) ;
#110 = EDGE_LOOP ( 'NONE', ( #177 ) ) ;
#111 = PRODUCT_DEFINITION ( 'UNKNOWN', '', #105, #78 ) ;
#112 = UNCERTAINTY_MEASURE_WITH_UNIT (LENGTH_MEASURE( 1.000000000000000082E-05 ), #181, 'distance_accuracy_value', 'NONE');
#113 = ORIENTED_EDGE ( 'NONE', *, *, #14, .T. ) ;
#114 = DIRECTION ( 'NONE',  ( 3.491481338843133355E-15, -1.224646799147353207E-16, 1.000000000000000000 ) ) ;
#115 = FACE_OUTER_BOUND ( 'NONE', #34, .T. ) ;
#116 = DIRECTION ( 'NONE',  ( -3.491481338843133355E-15, 1.224646799147353207E-16, -1.000000000000000000 ) ) ;
#117 = PLANE ( 'NONE',  #99 ) ;
#118 = DIRECTION ( 'NONE',  ( 0.0000000000000000000, 0.0000000000000000000, 1.000000000000000000 ) ) ;
#119 = DATE_TIME_ROLE ( 'creation_date' ) ;
#120 = PERSON_AND_ORGANIZATION_ROLE ( 'classification_officer' ) ;
#121 = APPLICATION_PROTOCOL_DEFINITION ( 'international standard', 'config_control_design', 1994, #9 ) ;
#122 = LOCAL_TIME ( 15, 34, 52.00000000000000000, #140 ) ;
#123 = COORDINATED_UNIVERSAL_TIME_OFFSET ( 1, 0, .AHEAD. ) ;
#124 = CC_DESIGN_PERSON_AND_ORGANIZATION_ASSIGNMENT ( #170, #120, ( #160 ) ) ;
#125 = ORIENTED_EDGE ( 'NONE', *, *, #141, .F. ) ;
#126 = LOCAL_TIME ( 15, 34, 52.00000000000000000, #123 ) ;
#127 = ORIENTED_EDGE ( 'NONE', *, *, #56, .F. ) ;
#128 = AXIS2_PLACEMENT_3D ( 'NONE', #143, #1, #67 ) ;
#129 = CARTESIAN_POINT ( 'NONE',  ( 7.681258945454893382E-14, -2.694222958124176809E-15, 22.00000000000000000 ) ) ;
#130 = CARTESIAN_POINT ( 'NONE',  ( 1.902857329669507363E-13, -6.674325055353074252E-15, 54.49999999999999289 ) ) ;
#131 = DIRECTION ( 'NONE',  ( 3.491481338843133355E-15, -1.224646799147353207E-16, 1.000000000000000000 ) ) ;
#132 = CC_DESIGN_APPROVAL ( #193, ( #105 ) ) ;
#133 = DIRECTION ( 'NONE',  ( -4.275831445896958607E-31, -1.000000000000000000, -1.224646799147353207E-16 ) ) ;
#134 = CARTESIAN_POINT ( 'NONE',  ( 0.0000000000000000000, 0.0000000000000000000, 0.0000000000000000000 ) ) ;
#135 = DIRECTION ( 'NONE',  ( 1.000000000000000000, 0.0000000000000000000, 0.0000000000000000000 ) ) ;
#136 =( GEOMETRIC_REPRESENTATION_CONTEXT ( 3 ) GLOBAL_UNCERTAINTY_ASSIGNED_CONTEXT ( ( #112 ) ) GLOBAL_UNIT_ASSIGNED_CONTEXT ( ( #181, #40, #81 ) ) REPRESENTATION_CONTEXT ( 'NONE', 'WORKASPACE' ) );
#137 = CARTESIAN_POINT ( 'NONE',  ( 0.0000000000000000000, 0.0000000000000000000, 0.0000000000000000000 ) ) ;
#138 = CC_DESIGN_DATE_AND_TIME_ASSIGNMENT ( #27, #90, ( #160 ) ) ;
#139 = DATE_AND_TIME ( #107, #126 ) ;
#140 = COORDINATED_UNIVERSAL_TIME_OFFSET ( 1, 0, .AHEAD. ) ;
#141 = EDGE_CURVE ( 'NONE', #163, #163, #102, .T. ) ;
#142 = AXIS2_PLACEMENT_3D ( 'NONE', #134, #149, #53 ) ;
#143 = CARTESIAN_POINT ( 'NONE',  ( 2.541590561669644859E-15, -8.914699647580433686E-17, 0.7279404685324123436 ) ) ;
#144 = CYLINDRICAL_SURFACE ( 'NONE', #142, 1.999999999999996225 ) ;
#145 = CYLINDRICAL_SURFACE ( 'NONE', #174, 1.999999999999999112 ) ;
#146 = PLANE ( 'NONE',  #91 ) ;
#147 = CARTESIAN_POINT ( 'NONE',  ( 1.920314736363723472E-13, -6.735557395310442615E-15, 55.00000000000000000 ) ) ;
#148 = CC_DESIGN_PERSON_AND_ORGANIZATION_ASSIGNMENT ( #87, #104, ( #105 ) ) ;
#149 = DIRECTION ( 'NONE',  ( -3.491481338843133355E-15, 1.224646799147353207E-16, -1.000000000000000000 ) ) ;
#150 = APPROVAL_DATE_TIME ( #184, #193 ) ;
#151 = CALENDAR_DATE ( 2021, 15, 10 ) ;
#152 = LOCAL_TIME ( 15, 34, 52.00000000000000000, #61 ) ;
#153 = LOCAL_TIME ( 15, 34, 52.00000000000000000, #75 ) ;
#154 = APPROVAL_DATE_TIME ( #59, #74 ) ;
#155 = ADVANCED_FACE ( 'NONE', ( #73 ), #68, .T. ) ;
#156 = APPLICATION_PROTOCOL_DEFINITION ( 'international standard', 'config_control_design', 1994, #22 ) ;
#157 = ADVANCED_FACE ( 'NONE', ( #43 ), #146, .F. ) ;
#158 = CC_DESIGN_PERSON_AND_ORGANIZATION_ASSIGNMENT ( #106, #26, ( #111 ) ) ;
#159 = ORIENTED_EDGE ( 'NONE', *, *, #108, .T. ) ;
#160 = SECURITY_CLASSIFICATION ( '', '', #172 ) ;
#161 = EDGE_LOOP ( 'NONE', ( #127 ) ) ;
#162 = CARTESIAN_POINT ( 'NONE',  ( 1.920314736363723472E-13, 1.124819836996384311E-32, 55.00000000000000000 ) ) ;
#163 = VERTEX_POINT ( 'NONE', #5 ) ;
#164 = FACE_OUTER_BOUND ( 'NONE', #161, .T. ) ;
#165 = FACE_OUTER_BOUND ( 'NONE', #49, .T. ) ;
#166 = DIRECTION ( 'NONE',  ( -3.491481338843133355E-15, 1.224646799147353207E-16, -1.000000000000000000 ) ) ;
#167 = CLOSED_SHELL ( 'NONE', ( #157, #28, #2, #23 ) ) ;
#168 = PERSON_AND_ORGANIZATION ( #187, #20 ) ;
#169 = COORDINATED_UNIVERSAL_TIME_OFFSET ( 1, 0, .AHEAD. ) ;
#170 = PERSON_AND_ORGANIZATION ( #187, #20 ) ;
#171 = APPROVAL_STATUS ( 'not_yet_approved' ) ;
#172 = SECURITY_CLASSIFICATION_LEVEL ( 'unclassified' ) ;
#173 = CC_DESIGN_DATE_AND_TIME_ASSIGNMENT ( #188, #119, ( #111 ) ) ;
#174 = AXIS2_PLACEMENT_3D ( 'NONE', #39, #71, #19 ) ;
#175 = ORIENTED_EDGE ( 'NONE', *, *, #38, .T. ) ;
#176 = CARTESIAN_POINT ( 'NONE',  ( 1.920314736363723472E-13, -6.735557395310442615E-15, 55.00000000000000000 ) ) ;
#177 = ORIENTED_EDGE ( 'NONE', *, *, #38, .F. ) ;
#178 = VERTEX_POINT ( 'NONE', #198 ) ;
#179 = AXIS2_PLACEMENT_3D ( 'NONE', #176, #36, #93 ) ;
#180 = VERTEX_POINT ( 'NONE', #101 ) ;
#181 =( LENGTH_UNIT ( ) NAMED_UNIT ( * ) SI_UNIT ( .MILLI., .METRE. ) );
#182 = DIRECTION ( 'NONE',  ( -3.491481338843133355E-15, 1.224646799147353207E-16, -1.000000000000000000 ) ) ;
#183 = AXIS2_PLACEMENT_3D ( 'NONE', #51, #131, #80 ) ;
#184 = DATE_AND_TIME ( #48, #122 ) ;
#185 = ADVANCED_BREP_SHAPE_REPRESENTATION ( '42305', ( #66, #63, #88 ), #136 ) ;
#186 = CIRCLE ( 'NONE', #33, 1.999999999999997335 ) ;
#187 = PERSON ( 'UNSPECIFIED', 'UNSPECIFIED', 'UNSPECIFIED', ('UNSPECIFIED'), ('UNSPECIFIED'), ('UNSPECIFIED') ) ;
#188 = DATE_AND_TIME ( #58, #152 ) ;
#189 = EDGE_LOOP ( 'NONE', ( #175 ) ) ;
#190 = CIRCLE ( 'NONE', #194, 2.000000000000001332 ) ;
#191 = CIRCLE ( 'NONE', #128, 1.999999999999994893 ) ;
#192 = EDGE_LOOP ( 'NONE', ( #95 ) ) ;
#193 = APPROVAL ( #171, 'UNSPECIFIED' ) ;
#194 = AXIS2_PLACEMENT_3D ( 'NONE', #130, #116, #70 ) ;
#195 = ORIENTED_EDGE ( 'NONE', *, *, #141, .T. ) ;
#196 = DIRECTION ( 'NONE',  ( 0.0000000000000000000, 1.000000000000000000, 0.0000000000000000000 ) ) ;
#197 = CARTESIAN_POINT ( 'NONE',  ( 7.681258945454893382E-14, 1.999999999999994893, 22.00000000000000000 ) ) ;
#198 = CARTESIAN_POINT ( 'NONE',  ( 7.681258945454893382E-14, 1.999999999999994893, 22.00000000000000000 ) ) ;
#199 = DIRECTION ( 'NONE',  ( 0.0000000000000000000, 1.000000000000000000, 0.0000000000000000000 ) ) ;
#200 = APPROVAL ( #13, 'UNSPECIFIED' ) ;
#201 = MECHANICAL_CONTEXT ( 'NONE', #22, 'mechanical' ) ;
#202 = CC_DESIGN_PERSON_AND_ORGANIZATION_ASSIGNMENT ( #60, #15, ( #86 ) ) ;
#203 = EDGE_LOOP ( 'NONE', ( #195 ) ) ;
ENDSEC;
END-ISO-10303-21;
