ISO-10303-21;
HEADER;
FILE_DESCRIPTION (( 'STEP AP203' ),
    '1' );
FILE_NAME ('1533.STEP',
    '2023-03-16T13:37:05',
    ( '' ),
    ( '' ),
    'SwSTEP 2.0',
    'SolidWorks 2022',
    '' );
FILE_SCHEMA (( 'CONFIG_CONTROL_DESIGN' ));
ENDSEC;

DATA;
#1 = EDGE_CURVE ( 'NONE', #158, #179, #62, .T. ) ;
#2 = ORIENTED_EDGE ( 'NONE', *, *, #172, .T. ) ;
#3 = PRODUCT_DEFINITION_SHAPE ( 'NONE', 'NONE',  #72 ) ;
#4 = CC_DESIGN_APPROVAL ( #201, ( #126 ) ) ;
#5 = DIRECTION ( 'NONE',  ( -3.491481338843133355E-15, 1.387933039033665210E-15, -1.000000000000000000 ) ) ;
#6 = ADVANCED_FACE ( 'NONE', ( #165 ), #8, .F. ) ;
#7 = CARTESIAN_POINT ( 'NONE',  ( 0.000000000000000000, 0.000000000000000000, 0.000000000000000000 ) ) ;
#8 = CYLINDRICAL_SURFACE ( 'NONE', #90, 4.000000000000000000 ) ;
#9 = CC_DESIGN_PERSON_AND_ORGANIZATION_ASSIGNMENT ( #150, #173, ( #126 ) ) ;
#10 = CARTESIAN_POINT ( 'NONE',  ( -6.057427881687350266E-29, 2.407947651051531960E-29, -1.734916298792081581E-14 ) ) ;
#11 = DIRECTION ( 'NONE',  ( 4.845942305349880465E-30, 1.000000000000000000, 1.387933039033665210E-15 ) ) ;
#12 = DIRECTION ( 'NONE',  ( 0.000000000000000000, 0.000000000000000000, 1.000000000000000000 ) ) ;
#13 = APPROVAL_ROLE ( '' ) ;
#14 = LINE ( 'NONE', #229, #34 ) ;
#15 = DIRECTION ( 'NONE',  ( 4.845942305349880465E-30, 1.000000000000000000, 1.387933039033665210E-15 ) ) ;
#16 = PERSON ( 'UNSPECIFIED', 'UNSPECIFIED', 'UNSPECIFIED', ('UNSPECIFIED'), ('UNSPECIFIED'), ('UNSPECIFIED') ) ;
#17 = DATE_TIME_ROLE ( 'classification_date' ) ;
#18 = CIRCLE ( 'NONE', #232, 4.000000000000000000 ) ;
#19 = DESIGN_CONTEXT ( 'detailed design', #226, 'design' ) ;
#20 = CARTESIAN_POINT ( 'NONE',  ( 5.237222008264512678E-16, -2.081899558550423119E-16, 0.1499999999999946099 ) ) ;
#21 = EDGE_LOOP ( 'NONE', ( #216, #204 ) ) ;
#22 = LINE ( 'NONE', #70, #91 ) ;
#23 = EDGE_CURVE ( 'NONE', #93, #187, #84, .T. ) ;
#24 = LOCAL_TIME ( 14, 37, 5.000000000000000000, #207 ) ;
#25 = CARTESIAN_POINT ( 'NONE',  ( 5.237222008264512678E-16, -2.081899558550423119E-16, 0.1499999999999946099 ) ) ;
#26 = EDGE_CURVE ( 'NONE', #116, #75, #228, .T. ) ;
#27 = DIRECTION ( 'NONE',  ( -3.491481338843133355E-15, 1.387933039033665210E-15, -1.000000000000000000 ) ) ;
#28 = CARTESIAN_POINT ( 'NONE',  ( -6.057427881687350266E-29, 2.407947651051531960E-29, -1.734916298792081581E-14 ) ) ;
#29 = PLANE ( 'NONE',  #53 ) ;
#30 = CARTESIAN_POINT ( 'NONE',  ( 5.237222008264705949E-16, 4.000000000000000888, 0.1500000000000001887 ) ) ;
#31 = APPROVAL_STATUS ( 'not_yet_approved' ) ;
#32 = ORIENTED_EDGE ( 'NONE', *, *, #92, .T. ) ;
#33 = COORDINATED_UNIVERSAL_TIME_OFFSET ( 1, 0, .AHEAD. ) ;
#34 = VECTOR ( 'NONE', #43, 1000.000000000000000 ) ;
#35 = DATE_AND_TIME ( #249, #236 ) ;
#36 = LOCAL_TIME ( 14, 37, 5.000000000000000000, #138 ) ;
#37 = DIRECTION ( 'NONE',  ( -3.491481338843133355E-15, 1.387933039033665210E-15, -1.000000000000000000 ) ) ;
#38 = EDGE_LOOP ( 'NONE', ( #164, #32, #159, #61 ) ) ;
#39 = LOCAL_TIME ( 14, 37, 5.000000000000000000, #33 ) ;
#40 =( NAMED_UNIT ( * ) SI_UNIT ( $, .STERADIAN. ) SOLID_ANGLE_UNIT ( ) );
#41 = DIRECTION ( 'NONE',  ( -3.491481338843133355E-15, 1.387933039033665210E-15, -1.000000000000000000 ) ) ;
#42 = DIRECTION ( 'NONE',  ( -3.491481338843133355E-15, 1.387933039033665210E-15, -1.000000000000000000 ) ) ;
#43 = DIRECTION ( 'NONE',  ( -3.491481338843133355E-15, 1.387933039033665210E-15, -1.000000000000000000 ) ) ;
#44 = CARTESIAN_POINT ( 'NONE',  ( -2.059525479773699180E-29, 4.000000000000000000, -5.898715415893077092E-15 ) ) ;
#45 = AXIS2_PLACEMENT_3D ( 'NONE', #240, #143, #76 ) ;
#46 = PERSON_AND_ORGANIZATION ( #16, #200 ) ;
#47 = DIRECTION ( 'NONE',  ( 4.845942305349880465E-30, 1.000000000000000000, 1.387933039033665210E-15 ) ) ;
#48 = CARTESIAN_POINT ( 'NONE',  ( 0.000000000000000000, 0.000000000000000000, 0.000000000000000000 ) ) ;
#49 = VECTOR ( 'NONE', #247, 1000.000000000000000 ) ;
#50 = CC_DESIGN_DATE_AND_TIME_ASSIGNMENT ( #210, #154, ( #72 ) ) ;
#51 = PERSON_AND_ORGANIZATION ( #16, #200 ) ;
#52 = DIRECTION ( 'NONE',  ( 4.845942305349881166E-30, 1.000000000000000000, 1.387933039033665210E-15 ) ) ;
#53 = AXIS2_PLACEMENT_3D ( 'NONE', #44, #102, #118 ) ;
#54 = CYLINDRICAL_SURFACE ( 'NONE', #95, 12.50000000000000000 ) ;
#55 = MANIFOLD_SOLID_BREP ( 'Corps-Déplacer/Copier1', #176 ) ;
#56 = ORIENTED_EDGE ( 'NONE', *, *, #197, .T. ) ;
#57 = FACE_OUTER_BOUND ( 'NONE', #21, .T. ) ;
#58 = ORIENTED_EDGE ( 'NONE', *, *, #175, .T. ) ;
#59 = ORIENTED_EDGE ( 'NONE', *, *, #26, .T. ) ;
#60 = ADVANCED_FACE ( 'NONE', ( #242 ), #244, .F. ) ;
#61 = ORIENTED_EDGE ( 'NONE', *, *, #172, .F. ) ;
#62 = CIRCLE ( 'NONE', #212, 12.50000000000000000 ) ;
#63 = CARTESIAN_POINT ( 'NONE',  ( 7.517198200720989761E-16, -4.000000000000000000, -1.110346431226932483E-14 ) ) ;
#64 = PERSON_AND_ORGANIZATION ( #16, #200 ) ;
#65 = CC_DESIGN_PERSON_AND_ORGANIZATION_ASSIGNMENT ( #51, #110, ( #194 ) ) ;
#66 = PRODUCT ( '1533', '1533', '', ( #243 ) ) ;
#67 = CIRCLE ( 'NONE', #241, 12.50000000000000000 ) ;
#68 = APPROVAL_DATE_TIME ( #209, #201 ) ;
#69 = CC_DESIGN_SECURITY_CLASSIFICATION ( #194, ( #126 ) ) ;
#70 = CARTESIAN_POINT ( 'NONE',  ( 6.057427881687351387E-29, 12.50000000000000000, 1.734916298792081581E-14 ) ) ;
#71 = ORIENTED_EDGE ( 'NONE', *, *, #117, .T. ) ;
#72 = PRODUCT_DEFINITION ( 'UNKNOWN', '', #126, #19 ) ;
#73 = VERTEX_POINT ( 'NONE', #30 ) ;
#74 = CARTESIAN_POINT ( 'NONE',  ( 1.094764425253763337E-44, 12.50000000000000000, 0.000000000000000000 ) ) ;
#75 = VERTEX_POINT ( 'NONE', #63 ) ;
#76 = DIRECTION ( 'NONE',  ( -4.845942305349880465E-30, -1.000000000000000000, -1.387933039033665210E-15 ) ) ;
#77 = ORIENTED_EDGE ( 'NONE', *, *, #214, .T. ) ;
#78 = CIRCLE ( 'NONE', #119, 4.000000000000000888 ) ;
#79 = AXIS2_PLACEMENT_3D ( 'NONE', #25, #122, #203 ) ;
#80 =( LENGTH_UNIT ( ) NAMED_UNIT ( * ) SI_UNIT ( .MILLI., .METRE. ) );
#81 = DIRECTION ( 'NONE',  ( 1.000000000000000000, 0.000000000000000000, 0.000000000000000000 ) ) ;
#82 = LINE ( 'NONE', #185, #147 ) ;
#83 = CARTESIAN_POINT ( 'NONE',  ( -1.938376922139951906E-29, 7.705432483364902720E-30, -5.551732156134660839E-15 ) ) ;
#84 = CIRCLE ( 'NONE', #140, 12.50000000000000000 ) ;
#85 = CALENDAR_DATE ( 2023, 16, 3 ) ;
#86 = DIRECTION ( 'NONE',  ( 4.845639740078285406E-30, 1.000000000000000000, 1.387778780781445676E-15 ) ) ;
#87 = SECURITY_CLASSIFICATION_LEVEL ( 'unclassified' ) ;
#88 = APPROVAL_ROLE ( '' ) ;
#89 = CALENDAR_DATE ( 2023, 16, 3 ) ;
#90 = AXIS2_PLACEMENT_3D ( 'NONE', #144, #123, #15 ) ;
#91 = VECTOR ( 'NONE', #5, 1000.000000000000000 ) ;
#92 = EDGE_CURVE ( 'NONE', #187, #158, #82, .T. ) ;
#93 = VERTEX_POINT ( 'NONE', #202 ) ;
#94 = APPROVAL ( #188, 'UNSPECIFIED' ) ;
#95 = AXIS2_PLACEMENT_3D ( 'NONE', #132, #111, #52 ) ;
#96 = DIRECTION ( 'NONE',  ( 4.845639740078285406E-30, 1.000000000000000000, 1.387778780781445676E-15 ) ) ;
#97 = VERTEX_POINT ( 'NONE', #99 ) ;
#98 = DIRECTION ( 'NONE',  ( 4.845942305349881166E-30, 1.000000000000000000, 1.387933039033665210E-15 ) ) ;
#99 = CARTESIAN_POINT ( 'NONE',  ( 2.736911063134408342E-45, 4.000000000000000000, 0.000000000000000000 ) ) ;
#100 = ORIENTED_EDGE ( 'NONE', *, *, #178, .T. ) ;
#101 = AXIS2_PLACEMENT_3D ( 'NONE', #125, #166, #98 ) ;
#102 = DIRECTION ( 'NONE',  ( -3.491481338843133355E-15, 1.387933039033665210E-15, -1.000000000000000000 ) ) ;
#103 = ORIENTED_EDGE ( 'NONE', *, *, #1, .F. ) ;
#104 = FACE_BOUND ( 'NONE', #235, .T. ) ;
#105 = CARTESIAN_POINT ( 'NONE',  ( 5.237222008264092610E-16, -2.081899558550256472E-16, 0.1499999999999826195 ) ) ;
#106 = SHAPE_DEFINITION_REPRESENTATION ( #3, #113 ) ;
#107 = APPROVAL ( #31, 'UNSPECIFIED' ) ;
#108 = PERSON_AND_ORGANIZATION_ROLE ( 'design_supplier' ) ;
#109 = APPROVAL_DATE_TIME ( #220, #107 ) ;
#110 = PERSON_AND_ORGANIZATION_ROLE ( 'classification_officer' ) ;
#111 = DIRECTION ( 'NONE',  ( -3.491481338843133355E-15, 1.387933039033665210E-15, -1.000000000000000000 ) ) ;
#112 = EDGE_CURVE ( 'NONE', #75, #97, #246, .T. ) ;
#113 = ADVANCED_BREP_SHAPE_REPRESENTATION ( '1533', ( #55, #153 ), #133 ) ;
#114 = ORIENTED_EDGE ( 'NONE', *, *, #124, .T. ) ;
#115 = CARTESIAN_POINT ( 'NONE',  ( 5.237222008264092610E-16, -2.081899558550256472E-16, 0.1499999999999826195 ) ) ;
#116 = VERTEX_POINT ( 'NONE', #149 ) ;
#117 = EDGE_CURVE ( 'NONE', #97, #75, #18, .T. ) ;
#118 = DIRECTION ( 'NONE',  ( 4.845942305349880465E-30, 1.000000000000000000, 1.387933039033665210E-15 ) ) ;
#119 = AXIS2_PLACEMENT_3D ( 'NONE', #20, #134, #213 ) ;
#120 = FACE_OUTER_BOUND ( 'NONE', #215, .T. ) ;
#121 = DIRECTION ( 'NONE',  ( 4.845942305349881166E-30, 1.000000000000000000, 1.387933039033665210E-15 ) ) ;
#122 = DIRECTION ( 'NONE',  ( -3.491481338843133355E-15, 1.387933039033665210E-15, -1.000000000000000000 ) ) ;
#123 = DIRECTION ( 'NONE',  ( -3.491481338843133355E-15, 1.387933039033665210E-15, -1.000000000000000000 ) ) ;
#124 = EDGE_CURVE ( 'NONE', #73, #97, #14, .T. ) ;
#125 = CARTESIAN_POINT ( 'NONE',  ( 0.000000000000000000, 0.000000000000000000, 0.000000000000000000 ) ) ;
#126 = PRODUCT_DEFINITION_FORMATION_WITH_SPECIFIED_SOURCE ( 'ANY', '', #66, .NOT_KNOWN. ) ;
#127 = EDGE_LOOP ( 'NONE', ( #237, #59, #198, #223 ) ) ;
#128 = APPROVAL_ROLE ( '' ) ;
#129 = CC_DESIGN_PERSON_AND_ORGANIZATION_ASSIGNMENT ( #131, #108, ( #126 ) ) ;
#130 = DIRECTION ( 'NONE',  ( -3.491481338843133355E-15, 1.387933039033665210E-15, -1.000000000000000000 ) ) ;
#131 = PERSON_AND_ORGANIZATION ( #16, #200 ) ;
#132 = CARTESIAN_POINT ( 'NONE',  ( 0.000000000000000000, 0.000000000000000000, 0.000000000000000000 ) ) ;
#133 =( GEOMETRIC_REPRESENTATION_CONTEXT ( 3 ) GLOBAL_UNCERTAINTY_ASSIGNED_CONTEXT ( ( #160 ) ) GLOBAL_UNIT_ASSIGNED_CONTEXT ( ( #80, #239, #40 ) ) REPRESENTATION_CONTEXT ( 'NONE', 'WORKASPACE' ) );
#134 = DIRECTION ( 'NONE',  ( -3.491481338843133355E-15, 1.387933039033665210E-15, -1.000000000000000000 ) ) ;
#135 = APPROVAL_PERSON_ORGANIZATION ( #64, #201, #128 ) ;
#136 = ORIENTED_EDGE ( 'NONE', *, *, #112, .F. ) ;
#137 = ADVANCED_FACE ( 'NONE', ( #152 ), #54, .T. ) ;
#138 = COORDINATED_UNIVERSAL_TIME_OFFSET ( 1, 0, .AHEAD. ) ;
#139 = FACE_BOUND ( 'NONE', #196, .T. ) ;
#140 = AXIS2_PLACEMENT_3D ( 'NONE', #105, #170, #86 ) ;
#141 = ORIENTED_EDGE ( 'NONE', *, *, #26, .F. ) ;
#142 = DIRECTION ( 'NONE',  ( 4.845942305349880465E-30, 1.000000000000000000, 1.387933039033665210E-15 ) ) ;
#143 = DIRECTION ( 'NONE',  ( 3.491481338843133355E-15, -1.387933039033665210E-15, 1.000000000000000000 ) ) ;
#144 = CARTESIAN_POINT ( 'NONE',  ( 0.000000000000000000, 0.000000000000000000, 0.000000000000000000 ) ) ;
#145 = PERSON_AND_ORGANIZATION_ROLE ( 'design_owner' ) ;
#146 = ORIENTED_EDGE ( 'NONE', *, *, #92, .F. ) ;
#147 = VECTOR ( 'NONE', #225, 1000.000000000000000 ) ;
#148 = CC_DESIGN_PERSON_AND_ORGANIZATION_ASSIGNMENT ( #189, #208, ( #72 ) ) ;
#149 = CARTESIAN_POINT ( 'NONE',  ( 7.517198200721185005E-16, -4.000000000000000888, 0.1499999999999890588 ) ) ;
#150 = PERSON_AND_ORGANIZATION ( #16, #200 ) ;
#151 = PERSON_AND_ORGANIZATION ( #16, #200 ) ;
#152 = FACE_OUTER_BOUND ( 'NONE', #38, .T. ) ;
#153 = AXIS2_PLACEMENT_3D ( 'NONE', #7, #12, #81 ) ;
#154 = DATE_TIME_ROLE ( 'creation_date' ) ;
#155 = CALENDAR_DATE ( 2023, 16, 3 ) ;
#156 = CC_DESIGN_APPROVAL ( #107, ( #72 ) ) ;
#157 = CARTESIAN_POINT ( 'NONE',  ( 1.792669599347183751E-15, -12.50000000000000000, -3.469832597584163793E-14 ) ) ;
#158 = VERTEX_POINT ( 'NONE', #157 ) ;
#159 = ORIENTED_EDGE ( 'NONE', *, *, #197, .F. ) ;
#160 = UNCERTAINTY_MEASURE_WITH_UNIT (LENGTH_MEASURE( 1.000000000000000082E-05 ), #80, 'distance_accuracy_value', 'NONE');
#161 = APPROVAL_PERSON_ORGANIZATION ( #151, #94, #88 ) ;
#162 = APPLICATION_PROTOCOL_DEFINITION ( 'international standard', 'config_control_design', 1994, #231 ) ;
#163 = APPROVAL_PERSON_ORGANIZATION ( #46, #107, #13 ) ;
#164 = ORIENTED_EDGE ( 'NONE', *, *, #23, .T. ) ;
#165 = FACE_OUTER_BOUND ( 'NONE', #177, .T. ) ;
#166 = DIRECTION ( 'NONE',  ( -3.491481338843133355E-15, 1.387933039033665210E-15, -1.000000000000000000 ) ) ;
#167 = CARTESIAN_POINT ( 'NONE',  ( -1.938376922139951906E-29, 7.705432483364902720E-30, -5.551732156134660839E-15 ) ) ;
#168 = PERSON_AND_ORGANIZATION ( #16, #200 ) ;
#169 = COORDINATED_UNIVERSAL_TIME_OFFSET ( 1, 0, .AHEAD. ) ;
#170 = DIRECTION ( 'NONE',  ( -3.491481338843133355E-15, 1.387933039033665210E-15, -1.000000000000000000 ) ) ;
#171 = COORDINATED_UNIVERSAL_TIME_OFFSET ( 1, 0, .AHEAD. ) ;
#172 = EDGE_CURVE ( 'NONE', #93, #179, #22, .T. ) ;
#173 = PERSON_AND_ORGANIZATION_ROLE ( 'creator' ) ;
#174 = APPROVAL_STATUS ( 'not_yet_approved' ) ;
#175 = EDGE_CURVE ( 'NONE', #73, #116, #78, .T. ) ;
#176 = CLOSED_SHELL ( 'NONE', ( #60, #137, #186, #238, #230, #6 ) ) ;
#177 = EDGE_LOOP ( 'NONE', ( #141, #221, #114, #71 ) ) ;
#178 = EDGE_CURVE ( 'NONE', #187, #93, #67, .T. ) ;
#179 = VERTEX_POINT ( 'NONE', #74 ) ;
#180 = CYLINDRICAL_SURFACE ( 'NONE', #101, 12.50000000000000000 ) ;
#181 = CARTESIAN_POINT ( 'NONE',  ( 1.792669599347244493E-15, -12.50000000000000000, 0.1499999999999652722 ) ) ;
#182 = DIRECTION ( 'NONE',  ( -3.491481338843133355E-15, 1.387933039033665210E-15, -1.000000000000000000 ) ) ;
#183 = PLANE ( 'NONE',  #45 ) ;
#184 = CIRCLE ( 'NONE', #222, 12.50000000000000000 ) ;
#185 = CARTESIAN_POINT ( 'NONE',  ( 1.530808498934130976E-15, -12.50000000000000000, -1.734916298792082212E-14 ) ) ;
#186 = ADVANCED_FACE ( 'NONE', ( #120, #139 ), #29, .T. ) ;
#187 = VERTEX_POINT ( 'NONE', #181 ) ;
#188 = APPROVAL_STATUS ( 'not_yet_approved' ) ;
#189 = PERSON_AND_ORGANIZATION ( #16, #200 ) ;
#190 = DATE_AND_TIME ( #89, #39 ) ;
#191 = CC_DESIGN_APPROVAL ( #94, ( #194 ) ) ;
#192 = CC_DESIGN_PERSON_AND_ORGANIZATION_ASSIGNMENT ( #168, #145, ( #66 ) ) ;
#193 = EDGE_LOOP ( 'NONE', ( #146, #100, #2, #103 ) ) ;
#194 = SECURITY_CLASSIFICATION ( '', '', #87 ) ;
#195 = CIRCLE ( 'NONE', #79, 4.000000000000000888 ) ;
#196 = EDGE_LOOP ( 'NONE', ( #206, #136 ) ) ;
#197 = EDGE_CURVE ( 'NONE', #179, #158, #184, .T. ) ;
#198 = ORIENTED_EDGE ( 'NONE', *, *, #112, .T. ) ;
#199 = DIRECTION ( 'NONE',  ( 4.845942305349881166E-30, 1.000000000000000000, 1.387933039033665210E-15 ) ) ;
#200 = ORGANIZATION ( 'UNSPECIFIED', 'UNSPECIFIED', '' ) ;
#201 = APPROVAL ( #174, 'UNSPECIFIED' ) ;
#202 = CARTESIAN_POINT ( 'NONE',  ( 5.237222008264698061E-16, 12.50000000000000000, 0.1499999999999999667 ) ) ;
#203 = DIRECTION ( 'NONE',  ( 4.838898985272928680E-30, 1.000000000000000000, 1.389134033497052162E-15 ) ) ;
#204 = ORIENTED_EDGE ( 'NONE', *, *, #178, .F. ) ;
#205 = CARTESIAN_POINT ( 'NONE',  ( 4.898587196589218572E-16, -4.000000000000000000, -5.551732156134662416E-15 ) ) ;
#206 = ORIENTED_EDGE ( 'NONE', *, *, #117, .F. ) ;
#207 = COORDINATED_UNIVERSAL_TIME_OFFSET ( 1, 0, .AHEAD. ) ;
#208 = PERSON_AND_ORGANIZATION_ROLE ( 'creator' ) ;
#209 = DATE_AND_TIME ( #155, #211 ) ;
#210 = DATE_AND_TIME ( #85, #24 ) ;
#211 = LOCAL_TIME ( 14, 37, 5.000000000000000000, #169 ) ;
#212 = AXIS2_PLACEMENT_3D ( 'NONE', #28, #41, #121 ) ;
#213 = DIRECTION ( 'NONE',  ( 4.838898985272928680E-30, 1.000000000000000000, 1.389134033497052162E-15 ) ) ;
#214 = EDGE_CURVE ( 'NONE', #116, #73, #195, .T. ) ;
#215 = EDGE_LOOP ( 'NONE', ( #56, #218 ) ) ;
#216 = ORIENTED_EDGE ( 'NONE', *, *, #23, .F. ) ;
#217 = AXIS2_PLACEMENT_3D ( 'NONE', #167, #27, #47 ) ;
#218 = ORIENTED_EDGE ( 'NONE', *, *, #1, .T. ) ;
#219 = PRODUCT_RELATED_PRODUCT_CATEGORY ( 'detail', '', ( #66 ) ) ;
#220 = DATE_AND_TIME ( #245, #36 ) ;
#221 = ORIENTED_EDGE ( 'NONE', *, *, #175, .F. ) ;
#222 = AXIS2_PLACEMENT_3D ( 'NONE', #10, #37, #199 ) ;
#223 = ORIENTED_EDGE ( 'NONE', *, *, #124, .F. ) ;
#224 = APPLICATION_PROTOCOL_DEFINITION ( 'international standard', 'config_control_design', 1994, #226 ) ;
#225 = DIRECTION ( 'NONE',  ( -3.491481338843133355E-15, 1.387933039033665210E-15, -1.000000000000000000 ) ) ;
#226 = APPLICATION_CONTEXT ( 'configuration controlled 3d designs of mechanical parts and assemblies' ) ;
#227 = FACE_OUTER_BOUND ( 'NONE', #193, .T. ) ;
#228 = LINE ( 'NONE', #205, #49 ) ;
#229 = CARTESIAN_POINT ( 'NONE',  ( 1.938376922139952186E-29, 4.000000000000000000, 5.551732156134660839E-15 ) ) ;
#230 = ADVANCED_FACE ( 'NONE', ( #104, #57 ), #183, .T. ) ;
#231 = APPLICATION_CONTEXT ( 'configuration controlled 3d designs of mechanical parts and assemblies' ) ;
#232 = AXIS2_PLACEMENT_3D ( 'NONE', #83, #182, #142 ) ;
#233 = APPROVAL_DATE_TIME ( #190, #94 ) ;
#234 = AXIS2_PLACEMENT_3D ( 'NONE', #48, #130, #11 ) ;
#235 = EDGE_LOOP ( 'NONE', ( #58, #77 ) ) ;
#236 = LOCAL_TIME ( 14, 37, 5.000000000000000000, #171 ) ;
#237 = ORIENTED_EDGE ( 'NONE', *, *, #214, .F. ) ;
#238 = ADVANCED_FACE ( 'NONE', ( #227 ), #180, .T. ) ;
#239 =( NAMED_UNIT ( * ) PLANE_ANGLE_UNIT ( ) SI_UNIT ( $, .RADIAN. ) );
#240 = CARTESIAN_POINT ( 'NONE',  ( 5.237222008264495915E-16, 4.000000000000000888, 0.1499999999999941658 ) ) ;
#241 = AXIS2_PLACEMENT_3D ( 'NONE', #115, #42, #96 ) ;
#242 = FACE_OUTER_BOUND ( 'NONE', #127, .T. ) ;
#243 = MECHANICAL_CONTEXT ( 'NONE', #231, 'mechanical' ) ;
#244 = CYLINDRICAL_SURFACE ( 'NONE', #234, 4.000000000000000000 ) ;
#245 = CALENDAR_DATE ( 2023, 16, 3 ) ;
#246 = CIRCLE ( 'NONE', #217, 4.000000000000000000 ) ;
#247 = DIRECTION ( 'NONE',  ( -3.491481338843133355E-15, 1.387933039033665210E-15, -1.000000000000000000 ) ) ;
#248 = CC_DESIGN_DATE_AND_TIME_ASSIGNMENT ( #35, #17, ( #194 ) ) ;
#249 = CALENDAR_DATE ( 2023, 16, 3 ) ;
ENDSEC;
END-ISO-10303-21;
