ISO-10303-21;
HEADER;
FILE_DESCRIPTION (( 'STEP AP203' ),
    '1' );
FILE_NAME ('42227.step',
    '2021-11-15T14:31:28',
    ( '' ),
    ( '' ),
    'SwSTEP 2.0',
    'SolidWorks 2019',
    '' );
FILE_SCHEMA (( 'CONFIG_CONTROL_DESIGN' ));
ENDSEC;

DATA;
#1 =( LENGTH_UNIT ( ) NAMED_UNIT ( * ) SI_UNIT ( .MILLI., .METRE. ) );
#2 = EDGE_CURVE ( 'NONE', #159, #159, #61, .T. ) ;
#3 = DIRECTION ( 'NONE',  ( -3.491481338843133355E-15, 1.224646799147353454E-16, -1.000000000000000000 ) ) ;
#4 = ORIENTED_EDGE ( 'NONE', *, *, #27, .F. ) ;
#5 = DATE_AND_TIME ( #175, #86 ) ;
#6 = CARTESIAN_POINT ( 'NONE',  ( 3.631140592396858689E-13, 8.999999999999994671, 104.0000000000000000 ) ) ;
#7 = DIRECTION ( 'NONE',  ( 0.0000000000000000000, 1.000000000000000000, 0.0000000000000000000 ) ) ;
#8 = APPROVAL_PERSON_ORGANIZATION ( #20, #16, #190 ) ;
#9 = FACE_OUTER_BOUND ( 'NONE', #75, .T. ) ;
#10 = FACE_BOUND ( 'NONE', #140, .T. ) ;
#11 = DATE_TIME_ROLE ( 'classification_date' ) ;
#12 = CARTESIAN_POINT ( 'NONE',  ( 3.596225779008426977E-13, 9.999999999999992895, 103.0000000000000000 ) ) ;
#13 = AXIS2_PLACEMENT_3D ( 'NONE', #149, #3, #66 ) ;
#14 = LOCAL_TIME ( 15, 31, 28.00000000000000000, #103 ) ;
#15 = ADVANCED_FACE ( 'NONE', ( #127, #10 ), #24, .T. ) ;
#16 = APPROVAL ( #144, 'UNSPECIFIED' ) ;
#17 =( GEOMETRIC_REPRESENTATION_CONTEXT ( 3 ) GLOBAL_UNCERTAINTY_ASSIGNED_CONTEXT ( ( #181 ) ) GLOBAL_UNIT_ASSIGNED_CONTEXT ( ( #1, #60, #179 ) ) REPRESENTATION_CONTEXT ( 'NONE', 'WORKASPACE' ) );
#18 = CALENDAR_DATE ( 2021, 15, 11 ) ;
#19 = VERTEX_POINT ( 'NONE', #199 ) ;
#20 = PERSON_AND_ORGANIZATION ( #147, #146 ) ;
#21 = VERTEX_POINT ( 'NONE', #12 ) ;
#22 = CARTESIAN_POINT ( 'NONE',  ( 1.326762908760390423E-13, -4.653657836759942730E-15, 38.00000000000000000 ) ) ;
#23 = CARTESIAN_POINT ( 'NONE',  ( -1.282758082945537358E-30, 4.499309685212745947E-32, -3.673965169667972786E-16 ) ) ;
#24 = CONICAL_SURFACE ( 'NONE', #155, 9.000000000000007105, 0.7853981633974473908 ) ;
#25 = SHAPE_DEFINITION_REPRESENTATION ( #40, #91 ) ;
#26 = FACE_OUTER_BOUND ( 'NONE', #78, .T. ) ;
#27 = EDGE_CURVE ( 'NONE', #167, #167, #35, .T. ) ;
#28 = DIRECTION ( 'NONE',  ( 4.275831445896959482E-31, 1.000000000000000000, 1.224646799147353700E-16 ) ) ;
#29 = APPLICATION_PROTOCOL_DEFINITION ( 'international standard', 'config_control_design', 1994, #83 ) ;
#30 = CARTESIAN_POINT ( 'NONE',  ( 1.326762908760390423E-13, 7.498798913309282565E-32, 38.00000000000000000 ) ) ;
#31 = CIRCLE ( 'NONE', #134, 9.999999999999998224 ) ;
#32 = ORIENTED_EDGE ( 'NONE', *, *, #136, .T. ) ;
#33 = DATE_TIME_ROLE ( 'creation_date' ) ;
#34 = FACE_OUTER_BOUND ( 'NONE', #202, .T. ) ;
#35 = CIRCLE ( 'NONE', #92, 9.999999999999992895 ) ;
#36 = DIRECTION ( 'NONE',  ( -3.491481338843133355E-15, 1.224646799147353454E-16, -1.000000000000000000 ) ) ;
#37 = DATE_AND_TIME ( #73, #14 ) ;
#38 = CYLINDRICAL_SURFACE ( 'NONE', #94, 10.00000000000000178 ) ;
#39 = LOCAL_TIME ( 15, 31, 28.00000000000000000, #120 ) ;
#40 = PRODUCT_DEFINITION_SHAPE ( 'NONE', 'NONE',  #76 ) ;
#41 = CC_DESIGN_DATE_AND_TIME_ASSIGNMENT ( #171, #33, ( #76 ) ) ;
#42 = FACE_OUTER_BOUND ( 'NONE', #69, .T. ) ;
#43 = SECURITY_CLASSIFICATION_LEVEL ( 'unclassified' ) ;
#44 = DIRECTION ( 'NONE',  ( 0.0000000000000000000, 0.0000000000000000000, 1.000000000000000000 ) ) ;
#45 = PRODUCT ( '42227', '42227', '', ( #184 ) ) ;
#46 = EDGE_LOOP ( 'NONE', ( #50 ) ) ;
#47 = ORIENTED_EDGE ( 'NONE', *, *, #68, .T. ) ;
#48 = ADVANCED_FACE ( 'NONE', ( #148, #9 ), #38, .T. ) ;
#49 = AXIS2_PLACEMENT_3D ( 'NONE', #124, #164, #113 ) ;
#50 = ORIENTED_EDGE ( 'NONE', *, *, #136, .F. ) ;
#51 = CALENDAR_DATE ( 2021, 15, 11 ) ;
#52 = PLANE ( 'NONE',  #162 ) ;
#53 = CARTESIAN_POINT ( 'NONE',  ( 1.326762908760390423E-13, 9.999999999999992895, 38.00000000000000000 ) ) ;
#54 = CC_DESIGN_SECURITY_CLASSIFICATION ( #129, ( #65 ) ) ;
#55 = CARTESIAN_POINT ( 'NONE',  ( 2.993073362951419146E-30, 9.999999999999992895, 8.572502821805553369E-16 ) ) ;
#56 = COORDINATED_UNIVERSAL_TIME_OFFSET ( 1, 0, .AHEAD. ) ;
#57 = CC_DESIGN_PERSON_AND_ORGANIZATION_ASSIGNMENT ( #139, #81, ( #76 ) ) ;
#58 = PERSON_AND_ORGANIZATION ( #147, #146 ) ;
#59 = DIRECTION ( 'NONE',  ( -3.491481338843133355E-15, 1.224646799147353454E-16, -1.000000000000000000 ) ) ;
#60 =( NAMED_UNIT ( * ) PLANE_ANGLE_UNIT ( ) SI_UNIT ( $, .RADIAN. ) );
#61 = CIRCLE ( 'NONE', #201, 9.999999999999998224 ) ;
#62 = EDGE_LOOP ( 'NONE', ( #4 ) ) ;
#63 = CC_DESIGN_DATE_AND_TIME_ASSIGNMENT ( #116, #11, ( #129 ) ) ;
#64 = ORIENTED_EDGE ( 'NONE', *, *, #27, .T. ) ;
#65 = PRODUCT_DEFINITION_FORMATION_WITH_SPECIFIED_SOURCE ( 'ANY', '', #45, .NOT_KNOWN. ) ;
#66 = DIRECTION ( 'NONE',  ( 0.0000000000000000000, 1.000000000000000000, 0.0000000000000000000 ) ) ;
#67 = CARTESIAN_POINT ( 'NONE',  ( 3.596225779008426977E-13, -1.261386203121773919E-14, 103.0000000000000000 ) ) ;
#68 = EDGE_CURVE ( 'NONE', #19, #19, #31, .T. ) ;
#69 = EDGE_LOOP ( 'NONE', ( #168 ) ) ;
#70 = APPROVAL_ROLE ( '' ) ;
#71 = FACE_OUTER_BOUND ( 'NONE', #112, .T. ) ;
#72 = CARTESIAN_POINT ( 'NONE',  ( 3.631140592396858689E-13, -1.273632671113247592E-14, 104.0000000000000000 ) ) ;
#73 = CALENDAR_DATE ( 2021, 15, 11 ) ;
#74 = DIRECTION ( 'NONE',  ( 3.491481338843133355E-15, -1.224646799147353454E-16, 1.000000000000000000 ) ) ;
#75 = EDGE_LOOP ( 'NONE', ( #32 ) ) ;
#76 = PRODUCT_DEFINITION ( 'UNKNOWN', '', #65, #106 ) ;
#77 = DATE_AND_TIME ( #18, #39 ) ;
#78 = EDGE_LOOP ( 'NONE', ( #90 ) ) ;
#79 = ORIENTED_EDGE ( 'NONE', *, *, #117, .T. ) ;
#80 = CLOSED_SHELL ( 'NONE', ( #119, #48, #15, #154 ) ) ;
#81 = PERSON_AND_ORGANIZATION_ROLE ( 'creator' ) ;
#82 = PLANE ( 'NONE',  #49 ) ;
#83 = APPLICATION_CONTEXT ( 'configuration controlled 3d designs of mechanical parts and assemblies' ) ;
#84 = AXIS2_PLACEMENT_3D ( 'NONE', #188, #74, #131 ) ;
#85 = PRODUCT_RELATED_PRODUCT_CATEGORY ( 'detail', '', ( #45 ) ) ;
#86 = LOCAL_TIME ( 15, 31, 28.00000000000000000, #143 ) ;
#87 = CARTESIAN_POINT ( 'NONE',  ( 1.326762908760390423E-13, -4.653657836759942730E-15, 38.00000000000000000 ) ) ;
#88 = PERSON_AND_ORGANIZATION ( #147, #146 ) ;
#89 = CC_DESIGN_PERSON_AND_ORGANIZATION_ASSIGNMENT ( #187, #99, ( #45 ) ) ;
#90 = ORIENTED_EDGE ( 'NONE', *, *, #2, .T. ) ;
#91 = ADVANCED_BREP_SHAPE_REPRESENTATION ( '42227', ( #166, #102, #121 ), #17 ) ;
#92 = AXIS2_PLACEMENT_3D ( 'NONE', #23, #196, #163 ) ;
#93 = ADVANCED_FACE ( 'NONE', ( #176, #26 ), #123, .T. ) ;
#94 = AXIS2_PLACEMENT_3D ( 'NONE', #130, #182, #28 ) ;
#95 = APPROVAL_STATUS ( 'not_yet_approved' ) ;
#96 = APPLICATION_CONTEXT ( 'configuration controlled 3d designs of mechanical parts and assemblies' ) ;
#97 = DIRECTION ( 'NONE',  ( -4.275831445896959482E-31, -1.000000000000000000, -1.224646799147353454E-16 ) ) ;
#98 = APPROVAL_PERSON_ORGANIZATION ( #177, #178, #70 ) ;
#99 = PERSON_AND_ORGANIZATION_ROLE ( 'design_owner' ) ;
#100 = APPROVAL_DATE_TIME ( #5, #156 ) ;
#101 = DIRECTION ( 'NONE',  ( 4.275831445896959482E-31, 1.000000000000000000, 1.224646799147353454E-16 ) ) ;
#102 = MANIFOLD_SOLID_BREP ( 'Corps-Déplacer/Copier1[2]', #174 ) ;
#103 = COORDINATED_UNIVERSAL_TIME_OFFSET ( 1, 0, .AHEAD. ) ;
#104 = CIRCLE ( 'NONE', #197, 10.00000000000000533 ) ;
#105 = DIRECTION ( 'NONE',  ( 3.491481338843133355E-15, -1.224646799147353454E-16, 1.000000000000000000 ) ) ;
#106 = DESIGN_CONTEXT ( 'detailed design', #96, 'design' ) ;
#107 = DIRECTION ( 'NONE',  ( -3.491481338843133355E-15, 1.224646799147353454E-16, -1.000000000000000000 ) ) ;
#108 = CALENDAR_DATE ( 2021, 15, 11 ) ;
#109 = AXIS2_PLACEMENT_3D ( 'NONE', #132, #107, #101 ) ;
#110 = DIRECTION ( 'NONE',  ( 1.000000000000000000, 0.0000000000000000000, 0.0000000000000000000 ) ) ;
#111 = ORIENTED_EDGE ( 'NONE', *, *, #68, .F. ) ;
#112 = EDGE_LOOP ( 'NONE', ( #47 ) ) ;
#113 = DIRECTION ( 'NONE',  ( -4.275831445896959482E-31, -1.000000000000000000, -1.224646799147353454E-16 ) ) ;
#114 = CC_DESIGN_APPROVAL ( #156, ( #65 ) ) ;
#115 = PLANE ( 'NONE',  #84 ) ;
#116 = DATE_AND_TIME ( #108, #191 ) ;
#117 = EDGE_CURVE ( 'NONE', #142, #142, #170, .T. ) ;
#118 = AXIS2_PLACEMENT_3D ( 'NONE', #30, #105, #97 ) ;
#119 = ADVANCED_FACE ( 'NONE', ( #71 ), #115, .F. ) ;
#120 = COORDINATED_UNIVERSAL_TIME_OFFSET ( 1, 0, .AHEAD. ) ;
#121 = AXIS2_PLACEMENT_3D ( 'NONE', #183, #44, #110 ) ;
#122 = COORDINATED_UNIVERSAL_TIME_OFFSET ( 1, 0, .AHEAD. ) ;
#123 = CYLINDRICAL_SURFACE ( 'NONE', #109, 9.999999999999994671 ) ;
#124 = CARTESIAN_POINT ( 'NONE',  ( -6.413790414727686792E-31, 2.249654842606372974E-32, -1.836982584833986393E-16 ) ) ;
#125 = APPROVAL_DATE_TIME ( #37, #178 ) ;
#126 = DIRECTION ( 'NONE',  ( -3.491481338843133355E-15, 1.224646799147353454E-16, -1.000000000000000000 ) ) ;
#127 = FACE_OUTER_BOUND ( 'NONE', #46, .T. ) ;
#128 = DIRECTION ( 'NONE',  ( 0.0000000000000000000, 1.000000000000000000, 0.0000000000000000000 ) ) ;
#129 = SECURITY_CLASSIFICATION ( '', '', #43 ) ;
#130 = CARTESIAN_POINT ( 'NONE',  ( 0.0000000000000000000, 0.0000000000000000000, 0.0000000000000000000 ) ) ;
#131 = DIRECTION ( 'NONE',  ( -4.275831445896959482E-31, -1.000000000000000000, -1.224646799147353454E-16 ) ) ;
#132 = CARTESIAN_POINT ( 'NONE',  ( 0.0000000000000000000, 0.0000000000000000000, 0.0000000000000000000 ) ) ;
#133 = EDGE_LOOP ( 'NONE', ( #185 ) ) ;
#134 = AXIS2_PLACEMENT_3D ( 'NONE', #87, #153, #180 ) ;
#135 = EDGE_LOOP ( 'NONE', ( #111 ) ) ;
#136 = EDGE_CURVE ( 'NONE', #21, #21, #104, .T. ) ;
#137 = CC_DESIGN_APPROVAL ( #178, ( #129 ) ) ;
#138 = ADVANCED_FACE ( 'NONE', ( #34 ), #82, .F. ) ;
#139 = PERSON_AND_ORGANIZATION ( #147, #146 ) ;
#140 = EDGE_LOOP ( 'NONE', ( #79 ) ) ;
#141 = APPROVAL_DATE_TIME ( #77, #16 ) ;
#142 = VERTEX_POINT ( 'NONE', #6 ) ;
#143 = COORDINATED_UNIVERSAL_TIME_OFFSET ( 1, 0, .AHEAD. ) ;
#144 = APPROVAL_STATUS ( 'not_yet_approved' ) ;
#145 = PERSON_AND_ORGANIZATION ( #147, #146 ) ;
#146 = ORGANIZATION ( 'UNSPECIFIED', 'UNSPECIFIED', '' ) ;
#147 = PERSON ( 'UNSPECIFIED', 'UNSPECIFIED', 'UNSPECIFIED', ('UNSPECIFIED'), ('UNSPECIFIED'), ('UNSPECIFIED') ) ;
#148 = FACE_OUTER_BOUND ( 'NONE', #135, .T. ) ;
#149 = CARTESIAN_POINT ( 'NONE',  ( 3.631140592396858689E-13, -1.273632671113247592E-14, 104.0000000000000000 ) ) ;
#150 = PLANE ( 'NONE',  #118 ) ;
#151 = CC_DESIGN_PERSON_AND_ORGANIZATION_ASSIGNMENT ( #88, #195, ( #65 ) ) ;
#152 = LOCAL_TIME ( 15, 31, 28.00000000000000000, #122 ) ;
#153 = DIRECTION ( 'NONE',  ( -3.491481338843133355E-15, 1.224646799147353454E-16, -1.000000000000000000 ) ) ;
#154 = ADVANCED_FACE ( 'NONE', ( #42 ), #52, .F. ) ;
#155 = AXIS2_PLACEMENT_3D ( 'NONE', #72, #193, #128 ) ;
#156 = APPROVAL ( #95, 'UNSPECIFIED' ) ;
#157 = CC_DESIGN_APPROVAL ( #16, ( #76 ) ) ;
#158 = APPROVAL_ROLE ( '' ) ;
#159 = VERTEX_POINT ( 'NONE', #53 ) ;
#160 = CARTESIAN_POINT ( 'NONE',  ( 3.631140592396858689E-13, 6.748919021978348288E-32, 104.0000000000000000 ) ) ;
#161 = APPROVAL_STATUS ( 'not_yet_approved' ) ;
#162 = AXIS2_PLACEMENT_3D ( 'NONE', #160, #36, #189 ) ;
#163 = DIRECTION ( 'NONE',  ( 4.275831445896959482E-31, 1.000000000000000000, 1.224646799147353454E-16 ) ) ;
#164 = DIRECTION ( 'NONE',  ( 3.491481338843133355E-15, -1.224646799147353454E-16, 1.000000000000000000 ) ) ;
#165 = CC_DESIGN_PERSON_AND_ORGANIZATION_ASSIGNMENT ( #58, #194, ( #129 ) ) ;
#166 = MANIFOLD_SOLID_BREP ( 'Corps-Déplacer/Copier1[1]', #80 ) ;
#167 = VERTEX_POINT ( 'NONE', #55 ) ;
#168 = ORIENTED_EDGE ( 'NONE', *, *, #117, .F. ) ;
#169 = PERSON_AND_ORGANIZATION_ROLE ( 'creator' ) ;
#170 = CIRCLE ( 'NONE', #13, 9.000000000000007105 ) ;
#171 = DATE_AND_TIME ( #51, #152 ) ;
#172 = FACE_OUTER_BOUND ( 'NONE', #133, .T. ) ;
#173 = APPLICATION_PROTOCOL_DEFINITION ( 'international standard', 'config_control_design', 1994, #96 ) ;
#174 = CLOSED_SHELL ( 'NONE', ( #138, #93, #200 ) ) ;
#175 = CALENDAR_DATE ( 2021, 15, 11 ) ;
#176 = FACE_OUTER_BOUND ( 'NONE', #62, .T. ) ;
#177 = PERSON_AND_ORGANIZATION ( #147, #146 ) ;
#178 = APPROVAL ( #161, 'UNSPECIFIED' ) ;
#179 =( NAMED_UNIT ( * ) SI_UNIT ( $, .STERADIAN. ) SOLID_ANGLE_UNIT ( ) );
#180 = DIRECTION ( 'NONE',  ( 0.0000000000000000000, 1.000000000000000000, 0.0000000000000000000 ) ) ;
#181 = UNCERTAINTY_MEASURE_WITH_UNIT (LENGTH_MEASURE( 1.000000000000000082E-05 ), #1, 'distance_accuracy_value', 'NONE');
#182 = DIRECTION ( 'NONE',  ( -3.491481338843133355E-15, 1.224646799147353454E-16, -1.000000000000000000 ) ) ;
#183 = CARTESIAN_POINT ( 'NONE',  ( 0.0000000000000000000, 0.0000000000000000000, 0.0000000000000000000 ) ) ;
#184 = MECHANICAL_CONTEXT ( 'NONE', #83, 'mechanical' ) ;
#185 = ORIENTED_EDGE ( 'NONE', *, *, #2, .F. ) ;
#186 = PERSON_AND_ORGANIZATION ( #147, #146 ) ;
#187 = PERSON_AND_ORGANIZATION ( #147, #146 ) ;
#188 = CARTESIAN_POINT ( 'NONE',  ( 1.326762908760390423E-13, 7.498798913309282565E-32, 38.00000000000000000 ) ) ;
#189 = DIRECTION ( 'NONE',  ( 4.275831445896959482E-31, 1.000000000000000000, 1.224646799147353454E-16 ) ) ;
#190 = APPROVAL_ROLE ( '' ) ;
#191 = LOCAL_TIME ( 15, 31, 28.00000000000000000, #56 ) ;
#192 = DIRECTION ( 'NONE',  ( 0.0000000000000000000, 1.000000000000000000, 0.0000000000000000000 ) ) ;
#193 = DIRECTION ( 'NONE',  ( -3.491481338843133355E-15, 1.224646799147353454E-16, -1.000000000000000000 ) ) ;
#194 = PERSON_AND_ORGANIZATION_ROLE ( 'classification_officer' ) ;
#195 = PERSON_AND_ORGANIZATION_ROLE ( 'design_supplier' ) ;
#196 = DIRECTION ( 'NONE',  ( -3.491481338843133355E-15, 1.224646799147353454E-16, -1.000000000000000000 ) ) ;
#197 = AXIS2_PLACEMENT_3D ( 'NONE', #67, #126, #192 ) ;
#198 = CC_DESIGN_PERSON_AND_ORGANIZATION_ASSIGNMENT ( #186, #169, ( #65 ) ) ;
#199 = CARTESIAN_POINT ( 'NONE',  ( 1.326762908760390423E-13, 9.999999999999992895, 38.00000000000000000 ) ) ;
#200 = ADVANCED_FACE ( 'NONE', ( #172 ), #150, .T. ) ;
#201 = AXIS2_PLACEMENT_3D ( 'NONE', #22, #59, #7 ) ;
#202 = EDGE_LOOP ( 'NONE', ( #64 ) ) ;
#203 = APPROVAL_PERSON_ORGANIZATION ( #145, #156, #158 ) ;
ENDSEC;
END-ISO-10303-21;
