ISO-10303-21;
HEADER;
FILE_DESCRIPTION (( 'STEP AP203' ),
    '1' );
FILE_NAME ('42220.step',
    '2021-09-03T07:22:23',
    ( '' ),
    ( '' ),
    'SwSTEP 2.0',
    'SolidWorks 2019',
    '' );
FILE_SCHEMA (( 'CONFIG_CONTROL_DESIGN' ));
ENDSEC;

DATA;
#1 = ORIENTED_EDGE ( 'NONE', *, *, #160, .F. ) ;
#2 = ORIENTED_EDGE ( 'NONE', *, *, #88, .F. ) ;
#3 = DIRECTION ( 'NONE',  ( -3.491481338843133355E-15, 1.224646799147353207E-16, -1.000000000000000000 ) ) ;
#4 = CARTESIAN_POINT ( 'NONE',  ( 2.435368228221770074E-13, -2.550000000000006040, 70.00000000000000000 ) ) ;
#5 = ORIENTED_EDGE ( 'NONE', *, *, #118, .F. ) ;
#6 = EDGE_CURVE ( 'NONE', #130, #191, #129, .T. ) ;
#7 = DIRECTION ( 'NONE',  ( -3.491481338843133355E-15, 1.224646799147353207E-16, -1.000000000000000000 ) ) ;
#8 = CONICAL_SURFACE ( 'NONE', #44, 3.249999999999989342, 1.029744258676649871 ) ;
#9 = ORIENTED_EDGE ( 'NONE', *, *, #6, .T. ) ;
#10 = APPROVAL_STATUS ( 'not_yet_approved' ) ;
#11 = ORIENTED_EDGE ( 'NONE', *, *, #109, .F. ) ;
#12 = DIRECTION ( 'NONE',  ( 4.275831445896958607E-31, 1.000000000000000000, 1.224646799147353207E-16 ) ) ;
#13 = DATE_TIME_ROLE ( 'creation_date' ) ;
#14 = CC_DESIGN_DATE_AND_TIME_ASSIGNMENT ( #314, #13, ( #131 ) ) ;
#15 = PERSON_AND_ORGANIZATION_ROLE ( 'classification_officer' ) ;
#16 = AXIS2_PLACEMENT_3D ( 'NONE', #224, #86, #17 ) ;
#17 = DIRECTION ( 'NONE',  ( 4.275831445896958607E-31, 1.000000000000000000, 1.224646799147353207E-16 ) ) ;
#18 = EDGE_CURVE ( 'NONE', #209, #331, #60, .T. ) ;
#19 = DIRECTION ( 'NONE',  ( 1.000000000000000000, 0.0000000000000000000, 0.0000000000000000000 ) ) ;
#20 = ORIENTED_EDGE ( 'NONE', *, *, #332, .F. ) ;
#21 = APPROVAL_ROLE ( '' ) ;
#22 = AXIS2_PLACEMENT_3D ( 'NONE', #90, #136, #81 ) ;
#23 = DIRECTION ( 'NONE',  ( -3.491481338843133355E-15, 1.224646799147353207E-16, -1.000000000000000000 ) ) ;
#24 = EDGE_CURVE ( 'NONE', #191, #130, #265, .T. ) ;
#25 = VERTEX_POINT ( 'NONE', #167 ) ;
#26 = AXIS2_PLACEMENT_3D ( 'NONE', #153, #280, #245 ) ;
#27 = EDGE_LOOP ( 'NONE', ( #184, #133, #175 ) ) ;
#28 = DATE_AND_TIME ( #261, #335 ) ;
#29 = ADVANCED_FACE ( 'NONE', ( #174 ), #274, .T. ) ;
#30 = CARTESIAN_POINT ( 'NONE',  ( 8.030407079339205455E-14, 3.249999999999988898, 23.00000000000000000 ) ) ;
#31 = CYLINDRICAL_SURFACE ( 'NONE', #122, 3.249999999999994671 ) ;
#32 = CIRCLE ( 'NONE', #291, 3.249999999999997780 ) ;
#33 = APPLICATION_PROTOCOL_DEFINITION ( 'international standard', 'config_control_design', 1994, #293 ) ;
#34 = DIRECTION ( 'NONE',  ( -3.491481338843133355E-15, 1.224646799147353207E-16, -1.000000000000000000 ) ) ;
#35 = PERSON_AND_ORGANIZATION ( #197, #194 ) ;
#36 = CARTESIAN_POINT ( 'NONE',  ( 8.030407079339205455E-14, -2.816687638038912352E-15, 23.00000000000000000 ) ) ;
#37 = DIRECTION ( 'NONE',  ( -4.275831445896958607E-31, -1.000000000000000000, -1.224646799147353207E-16 ) ) ;
#38 = CLOSED_SHELL ( 'NONE', ( #121, #142, #319, #29, #248, #48 ) ) ;
#39 = DIRECTION ( 'NONE',  ( -3.491481338843133355E-15, 1.224646799147353207E-16, -1.000000000000000000 ) ) ;
#40 = EDGE_CURVE ( 'NONE', #116, #191, #199, .T. ) ;
#41 = CARTESIAN_POINT ( 'NONE',  ( 2.419596567818291352E-13, -8.486802318091157127E-15, 69.29999999999999716 ) ) ;
#42 = DIRECTION ( 'NONE',  ( 0.0000000000000000000, 1.000000000000000000, 0.0000000000000000000 ) ) ;
#43 = FACE_OUTER_BOUND ( 'NONE', #299, .T. ) ;
#44 = AXIS2_PLACEMENT_3D ( 'NONE', #92, #115, #99 ) ;
#45 = DIRECTION ( 'NONE',  ( 1.798245827342159528E-15, -0.8571673007021100021, 0.5150380749100580413 ) ) ;
#46 = PERSON_AND_ORGANIZATION ( #197, #194 ) ;
#47 = AXIS2_PLACEMENT_3D ( 'NONE', #106, #150, #125 ) ;
#48 = ADVANCED_FACE ( 'NONE', ( #208 ), #333, .F. ) ;
#49 = PERSON_AND_ORGANIZATION_ROLE ( 'design_owner' ) ;
#50 = DIRECTION ( 'NONE',  ( 0.0000000000000000000, 1.000000000000000000, 0.0000000000000000000 ) ) ;
#51 = ORIENTED_EDGE ( 'NONE', *, *, #160, .T. ) ;
#52 = CARTESIAN_POINT ( 'NONE',  ( 2.444036937190193601E-13, 2.549999999999988720, 70.00000000000000000 ) ) ;
#53 = MANIFOLD_SOLID_BREP ( 'Corps-Déplacer/Copier1[1]', #38 ) ;
#54 = AXIS2_PLACEMENT_3D ( 'NONE', #186, #151, #311 ) ;
#55 = CARTESIAN_POINT ( 'NONE',  ( 2.444036937190193601E-13, -8.572527594031472993E-15, 70.00000000000000000 ) ) ;
#56 = PERSON_AND_ORGANIZATION ( #197, #194 ) ;
#57 = CALENDAR_DATE ( 2021, 3, 9 ) ;
#58 = DATE_TIME_ROLE ( 'classification_date' ) ;
#59 = CC_DESIGN_PERSON_AND_ORGANIZATION_ASSIGNMENT ( #56, #161, ( #123 ) ) ;
#60 = CIRCLE ( 'NONE', #323, 2.549999999999997602 ) ;
#61 = CC_DESIGN_SECURITY_CLASSIFICATION ( #266, ( #123 ) ) ;
#62 = ORIENTED_EDGE ( 'NONE', *, *, #288, .T. ) ;
#63 = EDGE_LOOP ( 'NONE', ( #5, #318, #196, #307 ) ) ;
#64 = FACE_OUTER_BOUND ( 'NONE', #63, .T. ) ;
#65 = EDGE_LOOP ( 'NONE', ( #205, #282, #51 ) ) ;
#66 = DIRECTION ( 'NONE',  ( -3.491481338843133355E-15, 1.224646799147353207E-16, -1.000000000000000000 ) ) ;
#67 = AXIS2_PLACEMENT_3D ( 'NONE', #108, #154, #12 ) ;
#68 = EDGE_LOOP ( 'NONE', ( #94, #2 ) ) ;
#69 = CALENDAR_DATE ( 2021, 3, 9 ) ;
#70 = LINE ( 'NONE', #182, #140 ) ;
#71 = ORIENTED_EDGE ( 'NONE', *, *, #24, .T. ) ;
#72 = ORIENTED_EDGE ( 'NONE', *, *, #18, .T. ) ;
#73 = CARTESIAN_POINT ( 'NONE',  ( 0.0000000000000000000, 0.0000000000000000000, 0.0000000000000000000 ) ) ;
#74 = ORIENTED_EDGE ( 'NONE', *, *, #240, .T. ) ;
#75 = DIRECTION ( 'NONE',  ( -2.468850131082275599E-15, 0.7071067811865445751, -0.7071067811865504593 ) ) ;
#76 = DIRECTION ( 'NONE',  ( 4.275831445896958607E-31, 1.000000000000000000, 1.224646799147353207E-16 ) ) ;
#77 = CONICAL_SURFACE ( 'NONE', #117, 2.549999999999997602, 0.7853981633974439491 ) ;
#78 = LINE ( 'NONE', #52, #112 ) ;
#79 = PERSON_AND_ORGANIZATION_ROLE ( 'creator' ) ;
#80 = CARTESIAN_POINT ( 'NONE',  ( 8.030407079339205455E-14, -2.816687638038912352E-15, 23.00000000000000000 ) ) ;
#81 = DIRECTION ( 'NONE',  ( -4.740750632337826893E-31, -1.000000000000000000, -1.334402673828317530E-16 ) ) ;
#82 = EDGE_CURVE ( 'NONE', #209, #241, #78, .T. ) ;
#83 = LINE ( 'NONE', #198, #180 ) ;
#84 = APPROVAL_ROLE ( '' ) ;
#85 =( NAMED_UNIT ( * ) SI_UNIT ( $, .STERADIAN. ) SOLID_ANGLE_UNIT ( ) );
#86 = DIRECTION ( 'NONE',  ( -3.491481338843133355E-15, 1.224646799147353207E-16, -1.000000000000000000 ) ) ;
#87 = CARTESIAN_POINT ( 'NONE',  ( 3.980102097228872593E-16, -3.249999999999990674, -3.980102097228900204E-16 ) ) ;
#88 = EDGE_CURVE ( 'NONE', #331, #209, #158, .T. ) ;
#89 = ORIENTED_EDGE ( 'NONE', *, *, #288, .F. ) ;
#90 = CARTESIAN_POINT ( 'NONE',  ( 6.818154325386546355E-15, -2.391486609933864519E-16, 1.952797011839585650 ) ) ;
#91 = CIRCLE ( 'NONE', #54, 3.249999999999991562 ) ;
#92 = CARTESIAN_POINT ( 'NONE',  ( 6.818154325386546355E-15, -2.391486609933864519E-16, 1.952797011839585650 ) ) ;
#93 = ORIENTED_EDGE ( 'NONE', *, *, #303, .F. ) ;
#94 = ORIENTED_EDGE ( 'NONE', *, *, #18, .F. ) ;
#95 = DIRECTION ( 'NONE',  ( 0.0000000000000000000, 1.000000000000000000, 0.0000000000000000000 ) ) ;
#96 = VERTEX_POINT ( 'NONE', #320 ) ;
#97 = CC_DESIGN_PERSON_AND_ORGANIZATION_ASSIGNMENT ( #247, #15, ( #266 ) ) ;
#98 = VECTOR ( 'NONE', #23, 1000.000000000000000 ) ;
#99 = DIRECTION ( 'NONE',  ( -4.740750632337826893E-31, -1.000000000000000000, -1.334402673828317530E-16 ) ) ;
#100 = ORIENTED_EDGE ( 'NONE', *, *, #118, .T. ) ;
#101 = EDGE_CURVE ( 'NONE', #195, #96, #281, .T. ) ;
#102 =( NAMED_UNIT ( * ) PLANE_ANGLE_UNIT ( ) SI_UNIT ( $, .RADIAN. ) );
#103 = EDGE_LOOP ( 'NONE', ( #149, #183, #214, #20 ) ) ;
#104 = CARTESIAN_POINT ( 'NONE',  ( 8.030407079339205455E-14, 2.437109646825508760E-32, 23.00000000000000000 ) ) ;
#105 = PERSON_AND_ORGANIZATION ( #197, #194 ) ;
#106 = CARTESIAN_POINT ( 'NONE',  ( 6.818154325386546355E-15, -2.391486609933864519E-16, 1.952797011839585650 ) ) ;
#107 = VECTOR ( 'NONE', #39, 1000.000000000000000 ) ;
#108 = CARTESIAN_POINT ( 'NONE',  ( 2.444036937190193601E-13, 1.912193722893853397E-32, 70.00000000000000000 ) ) ;
#109 = EDGE_CURVE ( 'NONE', #195, #25, #83, .T. ) ;
#110 = DATE_AND_TIME ( #317, #210 ) ;
#111 = CARTESIAN_POINT ( 'NONE',  ( 2.444036937190193601E-13, -8.572527594031472993E-15, 70.00000000000000000 ) ) ;
#112 = VECTOR ( 'NONE', #75, 1000.000000000000000 ) ;
#113 = APPROVAL_PERSON_ORGANIZATION ( #46, #262, #21 ) ;
#114 = CARTESIAN_POINT ( 'NONE',  ( 2.444036937190193601E-13, -8.572527594031472993E-15, 70.00000000000000000 ) ) ;
#115 = DIRECTION ( 'NONE',  ( 3.491481338843133355E-15, -1.224646799147353207E-16, 1.000000000000000000 ) ) ;
#116 = VERTEX_POINT ( 'NONE', #327 ) ;
#117 = AXIS2_PLACEMENT_3D ( 'NONE', #111, #227, #164 ) ;
#118 = EDGE_CURVE ( 'NONE', #331, #116, #268, .T. ) ;
#119 = ORIENTED_EDGE ( 'NONE', *, *, #135, .F. ) ;
#120 = CYLINDRICAL_SURFACE ( 'NONE', #185, 3.249999999999990674 ) ;
#121 = ADVANCED_FACE ( 'NONE', ( #201 ), #77, .T. ) ;
#122 = AXIS2_PLACEMENT_3D ( 'NONE', #254, #66, #159 ) ;
#123 = PRODUCT_DEFINITION_FORMATION_WITH_SPECIFIED_SOURCE ( 'ANY', '', #179, .NOT_KNOWN. ) ;
#124 = VERTEX_POINT ( 'NONE', #172 ) ;
#125 = DIRECTION ( 'NONE',  ( 4.740750632337826893E-31, 1.000000000000000000, 1.334402673828317530E-16 ) ) ;
#126 = PLANE ( 'NONE',  #230 ) ;
#127 = ADVANCED_BREP_SHAPE_REPRESENTATION ( '42220', ( #53, #278, #220 ), #171 ) ;
#128 = ORIENTED_EDGE ( 'NONE', *, *, #101, .T. ) ;
#129 = CIRCLE ( 'NONE', #270, 3.249999999999991562 ) ;
#130 = VERTEX_POINT ( 'NONE', #324 ) ;
#131 = PRODUCT_DEFINITION ( 'UNKNOWN', '', #123, #162 ) ;
#132 = APPROVAL_DATE_TIME ( #28, #262 ) ;
#133 = ORIENTED_EDGE ( 'NONE', *, *, #237, .T. ) ;
#134 = DIRECTION ( 'NONE',  ( -3.491481338843133355E-15, 1.224646799147353207E-16, -1.000000000000000000 ) ) ;
#135 = EDGE_CURVE ( 'NONE', #96, #124, #273, .T. ) ;
#136 = DIRECTION ( 'NONE',  ( 3.491481338843133355E-15, -1.224646799147353207E-16, 1.000000000000000000 ) ) ;
#137 = APPROVAL_PERSON_ORGANIZATION ( #35, #315, #207 ) ;
#138 = PERSON_AND_ORGANIZATION ( #197, #194 ) ;
#139 = FACE_OUTER_BOUND ( 'NONE', #27, .T. ) ;
#140 = VECTOR ( 'NONE', #189, 1000.000000000000000 ) ;
#141 = FACE_OUTER_BOUND ( 'NONE', #103, .T. ) ;
#142 = ADVANCED_FACE ( 'NONE', ( #141 ), #31, .T. ) ;
#143 = CONICAL_SURFACE ( 'NONE', #147, 2.549999999999997602, 0.7853981633974439491 ) ;
#144 = CC_DESIGN_APPROVAL ( #155, ( #123 ) ) ;
#145 = DIRECTION ( 'NONE',  ( -3.491481338843133355E-15, 1.224646799147353207E-16, -1.000000000000000000 ) ) ;
#146 = COORDINATED_UNIVERSAL_TIME_OFFSET ( 1, 0, .AHEAD. ) ;
#147 = AXIS2_PLACEMENT_3D ( 'NONE', #236, #233, #277 ) ;
#148 = APPROVAL_PERSON_ORGANIZATION ( #105, #155, #84 ) ;
#149 = ORIENTED_EDGE ( 'NONE', *, *, #303, .T. ) ;
#150 = DIRECTION ( 'NONE',  ( -3.491481338843133355E-15, 1.224646799147353207E-16, -1.000000000000000000 ) ) ;
#151 = DIRECTION ( 'NONE',  ( -3.491481338843133355E-15, 1.224646799147353207E-16, -1.000000000000000000 ) ) ;
#152 = FACE_OUTER_BOUND ( 'NONE', #157, .T. ) ;
#153 = CARTESIAN_POINT ( 'NONE',  ( 6.818154325386546355E-15, -2.391486609933864519E-16, 1.952797011839585650 ) ) ;
#154 = DIRECTION ( 'NONE',  ( -3.491481338843133355E-15, 1.224646799147353207E-16, -1.000000000000000000 ) ) ;
#155 = APPROVAL ( #216, 'UNSPECIFIED' ) ;
#156 = CARTESIAN_POINT ( 'NONE',  ( 1.615298739973334526E-13, -3.249999999999994227, 23.00000000000000000 ) ) ;
#157 = EDGE_LOOP ( 'NONE', ( #9, #71 ) ) ;
#158 = CIRCLE ( 'NONE', #238, 2.549999999999997602 ) ;
#159 = DIRECTION ( 'NONE',  ( 4.275831445896958607E-31, 1.000000000000000000, 1.224646799147353207E-16 ) ) ;
#160 = EDGE_CURVE ( 'NONE', #124, #25, #219, .T. ) ;
#161 = PERSON_AND_ORGANIZATION_ROLE ( 'design_supplier' ) ;
#162 = DESIGN_CONTEXT ( 'detailed design', #334, 'design' ) ;
#163 = AXIS2_PLACEMENT_3D ( 'NONE', #36, #322, #294 ) ;
#164 = DIRECTION ( 'NONE',  ( 0.0000000000000000000, 1.000000000000000000, 0.0000000000000000000 ) ) ;
#165 = DIRECTION ( 'NONE',  ( 0.0000000000000000000, 1.000000000000000000, 0.0000000000000000000 ) ) ;
#166 = DIRECTION ( 'NONE',  ( 3.491481338843133355E-15, -1.224646799147353207E-16, 1.000000000000000000 ) ) ;
#167 = CARTESIAN_POINT ( 'NONE',  ( 7.216164535109435587E-15, 3.249999999999988898, 1.952797011839586094 ) ) ;
#168 = SHAPE_DEFINITION_REPRESENTATION ( #308, #127 ) ;
#169 = CC_DESIGN_PERSON_AND_ORGANIZATION_ASSIGNMENT ( #138, #79, ( #123 ) ) ;
#170 = CARTESIAN_POINT ( 'NONE',  ( 8.030407079339205455E-14, -2.816687638038912352E-15, 23.00000000000000000 ) ) ;
#171 =( GEOMETRIC_REPRESENTATION_CONTEXT ( 3 ) GLOBAL_UNCERTAINTY_ASSIGNED_CONTEXT ( ( #231 ) ) GLOBAL_UNIT_ASSIGNED_CONTEXT ( ( #337, #102, #85 ) ) REPRESENTATION_CONTEXT ( 'NONE', 'WORKASPACE' ) );
#172 = CARTESIAN_POINT ( 'NONE',  ( 6.818154325386544777E-15, -3.249999999999989786, 1.952797011839585206 ) ) ;
#173 = CIRCLE ( 'NONE', #47, 3.249999999999989342 ) ;
#174 = FACE_OUTER_BOUND ( 'NONE', #212, .T. ) ;
#175 = ORIENTED_EDGE ( 'NONE', *, *, #176, .T. ) ;
#176 = EDGE_CURVE ( 'NONE', #25, #124, #173, .T. ) ;
#177 = VERTEX_POINT ( 'NONE', #263 ) ;
#178 = CARTESIAN_POINT ( 'NONE',  ( 0.0000000000000000000, 0.0000000000000000000, 0.0000000000000000000 ) ) ;
#179 = PRODUCT ( '42220', '42220', '', ( #228 ) ) ;
#180 = VECTOR ( 'NONE', #34, 1000.000000000000000 ) ;
#181 = CARTESIAN_POINT ( 'NONE',  ( 7.216164535109435587E-15, 3.249999999999988898, 1.952797011839586094 ) ) ;
#182 = CARTESIAN_POINT ( 'NONE',  ( 1.389645219916509226E-30, 3.249999999999994671, 3.980102097228891329E-16 ) ) ;
#183 = ORIENTED_EDGE ( 'NONE', *, *, #40, .T. ) ;
#184 = ORIENTED_EDGE ( 'NONE', *, *, #252, .F. ) ;
#185 = AXIS2_PLACEMENT_3D ( 'NONE', #178, #145, #336 ) ;
#186 = CARTESIAN_POINT ( 'NONE',  ( 8.030407079339205455E-14, -2.816687638038912352E-15, 23.00000000000000000 ) ) ;
#187 = DIRECTION ( 'NONE',  ( -4.275831445896958607E-31, -1.000000000000000000, -1.224646799147353207E-16 ) ) ;
#188 = ADVANCED_FACE ( 'NONE', ( #312 ), #243, .T. ) ;
#189 = DIRECTION ( 'NONE',  ( -3.491481338843133355E-15, 1.224646799147353207E-16, -1.000000000000000000 ) ) ;
#190 = ORIENTED_EDGE ( 'NONE', *, *, #135, .T. ) ;
#191 = VERTEX_POINT ( 'NONE', #156 ) ;
#192 = PERSON_AND_ORGANIZATION_ROLE ( 'creator' ) ;
#193 = ADVANCED_FACE ( 'NONE', ( #264 ), #250, .T. ) ;
#194 = ORGANIZATION ( 'UNSPECIFIED', 'UNSPECIFIED', '' ) ;
#195 = VERTEX_POINT ( 'NONE', #30 ) ;
#196 = ORIENTED_EDGE ( 'NONE', *, *, #82, .T. ) ;
#197 = PERSON ( 'UNSPECIFIED', 'UNSPECIFIED', 'UNSPECIFIED', ('UNSPECIFIED'), ('UNSPECIFIED'), ('UNSPECIFIED') ) ;
#198 = CARTESIAN_POINT ( 'NONE',  ( 1.389645219916507650E-30, 3.249999999999990674, 3.980102097228886892E-16 ) ) ;
#199 = LINE ( 'NONE', #271, #98 ) ;
#200 = PRODUCT_RELATED_PRODUCT_CATEGORY ( 'detail', '', ( #179 ) ) ;
#201 = FACE_OUTER_BOUND ( 'NONE', #242, .T. ) ;
#202 = DIRECTION ( 'NONE',  ( -3.491481338843133355E-15, 1.224646799147353207E-16, -1.000000000000000000 ) ) ;
#203 = VECTOR ( 'NONE', #45, 1000.000000000000000 ) ;
#204 = LOCAL_TIME ( 9, 22, 23.00000000000000000, #223 ) ;
#205 = ORIENTED_EDGE ( 'NONE', *, *, #237, .F. ) ;
#206 = LINE ( 'NONE', #304, #203 ) ;
#207 = APPROVAL_ROLE ( '' ) ;
#208 = FACE_OUTER_BOUND ( 'NONE', #68, .T. ) ;
#209 = VERTEX_POINT ( 'NONE', #326 ) ;
#210 = LOCAL_TIME ( 9, 22, 23.00000000000000000, #218 ) ;
#211 = DIRECTION ( 'NONE',  ( 3.491481338843133355E-15, -1.224646799147353207E-16, 1.000000000000000000 ) ) ;
#212 = EDGE_LOOP ( 'NONE', ( #234, #74, #329, #313 ) ) ;
#213 = ADVANCED_FACE ( 'NONE', ( #139 ), #295, .T. ) ;
#214 = ORIENTED_EDGE ( 'NONE', *, *, #6, .F. ) ;
#215 = AXIS2_PLACEMENT_3D ( 'NONE', #80, #3, #50 ) ;
#216 = APPROVAL_STATUS ( 'not_yet_approved' ) ;
#217 = DIRECTION ( 'NONE',  ( 0.0000000000000000000, 1.000000000000000000, 0.0000000000000000000 ) ) ;
#218 = COORDINATED_UNIVERSAL_TIME_OFFSET ( 1, 0, .AHEAD. ) ;
#219 = CIRCLE ( 'NONE', #26, 3.249999999999989342 ) ;
#220 = AXIS2_PLACEMENT_3D ( 'NONE', #296, #328, #19 ) ;
#221 = DIRECTION ( 'NONE',  ( 0.0000000000000000000, 1.000000000000000000, 0.0000000000000000000 ) ) ;
#222 = SECURITY_CLASSIFICATION_LEVEL ( 'unclassified' ) ;
#223 = COORDINATED_UNIVERSAL_TIME_OFFSET ( 1, 0, .AHEAD. ) ;
#224 = CARTESIAN_POINT ( 'NONE',  ( 0.0000000000000000000, 0.0000000000000000000, 0.0000000000000000000 ) ) ;
#225 = CC_DESIGN_PERSON_AND_ORGANIZATION_ASSIGNMENT ( #239, #49, ( #179 ) ) ;
#226 = LOCAL_TIME ( 9, 22, 23.00000000000000000, #257 ) ;
#227 = DIRECTION ( 'NONE',  ( -3.491481338843133355E-15, 1.224646799147353207E-16, -1.000000000000000000 ) ) ;
#228 = MECHANICAL_CONTEXT ( 'NONE', #293, 'mechanical' ) ;
#229 = CARTESIAN_POINT ( 'NONE',  ( 2.419596567818291352E-13, 3.249999999999988898, 69.29999999999999716 ) ) ;
#230 = AXIS2_PLACEMENT_3D ( 'NONE', #104, #211, #187 ) ;
#231 = UNCERTAINTY_MEASURE_WITH_UNIT (LENGTH_MEASURE( 1.000000000000000082E-05 ), #337, 'distance_accuracy_value', 'NONE');
#232 = EDGE_LOOP ( 'NONE', ( #306, #89 ) ) ;
#233 = DIRECTION ( 'NONE',  ( -3.491481338843133355E-15, 1.224646799147353207E-16, -1.000000000000000000 ) ) ;
#234 = ORIENTED_EDGE ( 'NONE', *, *, #40, .F. ) ;
#235 = ORIENTED_EDGE ( 'NONE', *, *, #176, .F. ) ;
#236 = CARTESIAN_POINT ( 'NONE',  ( 2.444036937190193601E-13, -8.572527594031472993E-15, 70.00000000000000000 ) ) ;
#237 = EDGE_CURVE ( 'NONE', #177, #25, #289, .T. ) ;
#238 = AXIS2_PLACEMENT_3D ( 'NONE', #55, #134, #221 ) ;
#239 = PERSON_AND_ORGANIZATION ( #197, #194 ) ;
#240 = EDGE_CURVE ( 'NONE', #116, #241, #286, .T. ) ;
#241 = VERTEX_POINT ( 'NONE', #229 ) ;
#242 = EDGE_LOOP ( 'NONE', ( #72, #100, #93, #279 ) ) ;
#243 = CYLINDRICAL_SURFACE ( 'NONE', #302, 3.249999999999990674 ) ;
#244 = APPLICATION_PROTOCOL_DEFINITION ( 'international standard', 'config_control_design', 1994, #334 ) ;
#245 = DIRECTION ( 'NONE',  ( 4.740750632337826893E-31, 1.000000000000000000, 1.334402673828317530E-16 ) ) ;
#246 = CALENDAR_DATE ( 2021, 3, 9 ) ;
#247 = PERSON_AND_ORGANIZATION ( #197, #194 ) ;
#248 = ADVANCED_FACE ( 'NONE', ( #64 ), #143, .T. ) ;
#249 = CARTESIAN_POINT ( 'NONE',  ( 2.447159786528019082E-13, -2.550000000000006040, 70.00000000000000000 ) ) ;
#250 = PLANE ( 'NONE',  #330 ) ;
#251 = VECTOR ( 'NONE', #297, 1000.000000000000114 ) ;
#252 = EDGE_CURVE ( 'NONE', #177, #124, #206, .T. ) ;
#253 = EDGE_LOOP ( 'NONE', ( #128, #190, #235, #11 ) ) ;
#254 = CARTESIAN_POINT ( 'NONE',  ( 0.0000000000000000000, 0.0000000000000000000, 0.0000000000000000000 ) ) ;
#255 = AXIS2_PLACEMENT_3D ( 'NONE', #41, #275, #95 ) ;
#256 = CC_DESIGN_DATE_AND_TIME_ASSIGNMENT ( #290, #58, ( #266 ) ) ;
#257 = COORDINATED_UNIVERSAL_TIME_OFFSET ( 1, 0, .AHEAD. ) ;
#258 = APPROVAL_STATUS ( 'not_yet_approved' ) ;
#259 = VECTOR ( 'NONE', #272, 1000.000000000000000 ) ;
#260 = CC_DESIGN_APPROVAL ( #315, ( #266 ) ) ;
#261 = CALENDAR_DATE ( 2021, 3, 9 ) ;
#262 = APPROVAL ( #258, 'UNSPECIFIED' ) ;
#263 = CARTESIAN_POINT ( 'NONE',  ( 0.0000000000000000000, 0.0000000000000000000, 0.0000000000000000000 ) ) ;
#264 = FACE_OUTER_BOUND ( 'NONE', #232, .T. ) ;
#265 = CIRCLE ( 'NONE', #163, 3.249999999999991562 ) ;
#266 = SECURITY_CLASSIFICATION ( '', '', #222 ) ;
#267 = DATE_AND_TIME ( #69, #226 ) ;
#268 = LINE ( 'NONE', #249, #259 ) ;
#269 = APPROVAL_DATE_TIME ( #110, #155 ) ;
#270 = AXIS2_PLACEMENT_3D ( 'NONE', #170, #202, #42 ) ;
#271 = CARTESIAN_POINT ( 'NONE',  ( 3.980102097228877524E-16, -3.249999999999994671, -3.980102097228905134E-16 ) ) ;
#272 = DIRECTION ( 'NONE',  ( -2.382254525458727330E-15, -0.7071067811865443531, -0.7071067811865506814 ) ) ;
#273 = LINE ( 'NONE', #87, #107 ) ;
#274 = CYLINDRICAL_SURFACE ( 'NONE', #16, 3.249999999999994671 ) ;
#275 = DIRECTION ( 'NONE',  ( -3.491481338843133355E-15, 1.224646799147353207E-16, -1.000000000000000000 ) ) ;
#276 = CC_DESIGN_PERSON_AND_ORGANIZATION_ASSIGNMENT ( #316, #192, ( #131 ) ) ;
#277 = DIRECTION ( 'NONE',  ( 0.0000000000000000000, 1.000000000000000000, 0.0000000000000000000 ) ) ;
#278 = MANIFOLD_SOLID_BREP ( 'Corps-Déplacer/Copier1[2]', #309 ) ;
#279 = ORIENTED_EDGE ( 'NONE', *, *, #82, .F. ) ;
#280 = DIRECTION ( 'NONE',  ( -3.491481338843133355E-15, 1.224646799147353207E-16, -1.000000000000000000 ) ) ;
#281 = CIRCLE ( 'NONE', #215, 3.249999999999991562 ) ;
#282 = ORIENTED_EDGE ( 'NONE', *, *, #252, .T. ) ;
#283 = CARTESIAN_POINT ( 'NONE',  ( 2.419596567818291352E-13, -8.486802318091157127E-15, 69.29999999999999716 ) ) ;
#284 = ADVANCED_FACE ( 'NONE', ( #43 ), #120, .T. ) ;
#285 = COORDINATED_UNIVERSAL_TIME_OFFSET ( 1, 0, .AHEAD. ) ;
#286 = CIRCLE ( 'NONE', #255, 3.249999999999997780 ) ;
#287 = APPROVAL_DATE_TIME ( #267, #315 ) ;
#288 = EDGE_CURVE ( 'NONE', #96, #195, #91, .T. ) ;
#289 = LINE ( 'NONE', #181, #251 ) ;
#290 = DATE_AND_TIME ( #57, #204 ) ;
#291 = AXIS2_PLACEMENT_3D ( 'NONE', #283, #305, #217 ) ;
#292 = LOCAL_TIME ( 9, 22, 23.00000000000000000, #285 ) ;
#293 = APPLICATION_CONTEXT ( 'configuration controlled 3d designs of mechanical parts and assemblies' ) ;
#294 = DIRECTION ( 'NONE',  ( 0.0000000000000000000, 1.000000000000000000, 0.0000000000000000000 ) ) ;
#295 = CONICAL_SURFACE ( 'NONE', #22, 3.249999999999989342, 1.029744258676649871 ) ;
#296 = CARTESIAN_POINT ( 'NONE',  ( 0.0000000000000000000, 0.0000000000000000000, 0.0000000000000000000 ) ) ;
#297 = DIRECTION ( 'NONE',  ( 1.903218546456021928E-15, 0.8571673007021098911, 0.5150380749100583744 ) ) ;
#298 = ADVANCED_FACE ( 'NONE', ( #300 ), #8, .T. ) ;
#299 = EDGE_LOOP ( 'NONE', ( #119, #62, #301, #1 ) ) ;
#300 = FACE_OUTER_BOUND ( 'NONE', #65, .T. ) ;
#301 = ORIENTED_EDGE ( 'NONE', *, *, #109, .T. ) ;
#302 = AXIS2_PLACEMENT_3D ( 'NONE', #73, #7, #76 ) ;
#303 = EDGE_CURVE ( 'NONE', #241, #116, #32, .T. ) ;
#304 = CARTESIAN_POINT ( 'NONE',  ( 6.818154325386544777E-15, -3.249999999999989786, 1.952797011839585206 ) ) ;
#305 = DIRECTION ( 'NONE',  ( -3.491481338843133355E-15, 1.224646799147353207E-16, -1.000000000000000000 ) ) ;
#306 = ORIENTED_EDGE ( 'NONE', *, *, #101, .F. ) ;
#307 = ORIENTED_EDGE ( 'NONE', *, *, #240, .F. ) ;
#308 = PRODUCT_DEFINITION_SHAPE ( 'NONE', 'NONE',  #131 ) ;
#309 = CLOSED_SHELL ( 'NONE', ( #188, #213, #298, #284, #193 ) ) ;
#310 = CC_DESIGN_APPROVAL ( #262, ( #131 ) ) ;
#311 = DIRECTION ( 'NONE',  ( 0.0000000000000000000, 1.000000000000000000, 0.0000000000000000000 ) ) ;
#312 = FACE_OUTER_BOUND ( 'NONE', #253, .T. ) ;
#313 = ORIENTED_EDGE ( 'NONE', *, *, #24, .F. ) ;
#314 = DATE_AND_TIME ( #246, #292 ) ;
#315 = APPROVAL ( #10, 'UNSPECIFIED' ) ;
#316 = PERSON_AND_ORGANIZATION ( #197, #194 ) ;
#317 = CALENDAR_DATE ( 2021, 3, 9 ) ;
#318 = ORIENTED_EDGE ( 'NONE', *, *, #88, .T. ) ;
#319 = ADVANCED_FACE ( 'NONE', ( #152 ), #126, .F. ) ;
#320 = CARTESIAN_POINT ( 'NONE',  ( 4.395912276911217943E-14, -3.249999999999993783, 23.00000000000000000 ) ) ;
#321 = CARTESIAN_POINT ( 'NONE',  ( 8.030407079339205455E-14, 2.437109646825508760E-32, 23.00000000000000000 ) ) ;
#322 = DIRECTION ( 'NONE',  ( -3.491481338843133355E-15, 1.224646799147353207E-16, -1.000000000000000000 ) ) ;
#323 = AXIS2_PLACEMENT_3D ( 'NONE', #114, #325, #165 ) ;
#324 = CARTESIAN_POINT ( 'NONE',  ( 8.030407079339205455E-14, 3.249999999999988898, 23.00000000000000000 ) ) ;
#325 = DIRECTION ( 'NONE',  ( -3.491481338843133355E-15, 1.224646799147353207E-16, -1.000000000000000000 ) ) ;
#326 = CARTESIAN_POINT ( 'NONE',  ( 2.444036937190193601E-13, 2.549999999999988720, 70.00000000000000000 ) ) ;
#327 = CARTESIAN_POINT ( 'NONE',  ( 1.615298739973333516E-13, -3.250000000000005773, 69.29999999999999716 ) ) ;
#328 = DIRECTION ( 'NONE',  ( 0.0000000000000000000, 0.0000000000000000000, 1.000000000000000000 ) ) ;
#329 = ORIENTED_EDGE ( 'NONE', *, *, #332, .T. ) ;
#330 = AXIS2_PLACEMENT_3D ( 'NONE', #321, #166, #37 ) ;
#331 = VERTEX_POINT ( 'NONE', #4 ) ;
#332 = EDGE_CURVE ( 'NONE', #241, #130, #70, .T. ) ;
#333 = PLANE ( 'NONE',  #67 ) ;
#334 = APPLICATION_CONTEXT ( 'configuration controlled 3d designs of mechanical parts and assemblies' ) ;
#335 = LOCAL_TIME ( 9, 22, 23.00000000000000000, #146 ) ;
#336 = DIRECTION ( 'NONE',  ( 4.275831445896958607E-31, 1.000000000000000000, 1.224646799147353207E-16 ) ) ;
#337 =( LENGTH_UNIT ( ) NAMED_UNIT ( * ) SI_UNIT ( .MILLI., .METRE. ) );
ENDSEC;
END-ISO-10303-21;
