ISO-10303-21;
HEADER;
FILE_DESCRIPTION (( 'STEP AP203' ),
    '1' );
FILE_NAME ('42203.step',
    '2021-11-01T10:35:14',
    ( '' ),
    ( '' ),
    'SwSTEP 2.0',
    'SolidWorks 2019',
    '' );
FILE_SCHEMA (( 'CONFIG_CONTROL_DESIGN' ));
ENDSEC;

DATA;
#1 = CIRCLE ( 'NONE', #208, 0.9999999999999997780 ) ;
#2 = PRODUCT_DEFINITION_SHAPE ( 'NONE', 'NONE',  #22 ) ;
#3 = DIRECTION ( 'NONE',  ( 3.491481338843133355E-15, -1.227517819005651059E-16, 1.000000000000000000 ) ) ;
#4 = CARTESIAN_POINT ( 'NONE',  ( 1.326762908760390423E-13, 8.998558695971062171E-33, 38.00000000000000000 ) ) ;
#5 = DIRECTION ( 'NONE',  ( 4.275831445896958607E-31, 1.000000000000000000, 1.224646799147353207E-16 ) ) ;
#6 = DIRECTION ( 'NONE',  ( 0.0000000000000000000, 1.000000000000000000, 0.0000000000000000000 ) ) ;
#7 = CARTESIAN_POINT ( 'NONE',  ( 2.094888803305879698E-14, 0.0000000000000000000, 5.999999999999999112 ) ) ;
#8 = LOCAL_TIME ( 11, 35, 14.00000000000000000, #223 ) ;
#9 = FACE_OUTER_BOUND ( 'NONE', #128, .T. ) ;
#10 = MANIFOLD_SOLID_BREP ( 'Corps-Déplacer/Copier1[1]', #15 ) ;
#11 = CYLINDRICAL_SURFACE ( 'NONE', #37, 1.499999999999995781 ) ;
#12 = MANIFOLD_SOLID_BREP ( 'Corps-Déplacer/Copier1[2]', #193 ) ;
#13 = ORIENTED_EDGE ( 'NONE', *, *, #54, .F. ) ;
#14 = DATE_TIME_ROLE ( 'classification_date' ) ;
#15 = CLOSED_SHELL ( 'NONE', ( #68, #140, #195, #191, #98 ) ) ;
#16 = CC_DESIGN_PERSON_AND_ORGANIZATION_ASSIGNMENT ( #151, #93, ( #67 ) ) ;
#17 = DIRECTION ( 'NONE',  ( -4.285855558155653280E-31, -1.000000000000000000, -1.227517819005651059E-16 ) ) ;
#18 = SECURITY_CLASSIFICATION_LEVEL ( 'unclassified' ) ;
#19 = DATE_AND_TIME ( #81, #105 ) ;
#20 = DESIGN_CONTEXT ( 'detailed design', #35, 'design' ) ;
#21 = CARTESIAN_POINT ( 'NONE',  ( 2.094888803305880013E-14, 1.124819836996387322E-32, 6.000000000000000000 ) ) ;
#22 = PRODUCT_DEFINITION ( 'UNKNOWN', '', #40, #20 ) ;
#23 = PLANE ( 'NONE',  #87 ) ;
#24 = APPLICATION_PROTOCOL_DEFINITION ( 'international standard', 'config_control_design', 1994, #158 ) ;
#25 = APPROVAL ( #112, 'UNSPECIFIED' ) ;
#26 = VERTEX_POINT ( 'NONE', #77 ) ;
#27 = DIRECTION ( 'NONE',  ( 3.491481338843133355E-15, -1.227517819005651059E-16, 1.000000000000000000 ) ) ;
#28 = CARTESIAN_POINT ( 'NONE',  ( 2.094888803305879698E-14, -1.000000000000000444, 5.999999999999999112 ) ) ;
#29 = EDGE_CURVE ( 'NONE', #196, #196, #211, .T. ) ;
#30 = PERSON_AND_ORGANIZATION ( #137, #100 ) ;
#31 = DIRECTION ( 'NONE',  ( 0.0000000000000000000, 1.000000000000000000, 0.0000000000000000000 ) ) ;
#32 = DATE_TIME_ROLE ( 'creation_date' ) ;
#33 = APPROVAL_DATE_TIME ( #188, #25 ) ;
#34 = TOROIDAL_SURFACE ( 'NONE', #157, 9.000000000000000000, 8.000000000000000000 ) ;
#35 = APPLICATION_CONTEXT ( 'configuration controlled 3d designs of mechanical parts and assemblies' ) ;
#36 = FACE_OUTER_BOUND ( 'NONE', #217, .T. ) ;
#37 = AXIS2_PLACEMENT_3D ( 'NONE', #148, #42, #103 ) ;
#38 = CARTESIAN_POINT ( 'NONE',  ( 2.094888803305879698E-14, -7.365106914033905366E-16, 5.999999999999999112 ) ) ;
#39 = AXIS2_PLACEMENT_3D ( 'NONE', #53, #99, #70 ) ;
#40 = PRODUCT_DEFINITION_FORMATION_WITH_SPECIFIED_SOURCE ( 'ANY', '', #44, .NOT_KNOWN. ) ;
#41 = VERTEX_POINT ( 'NONE', #176 ) ;
#42 = DIRECTION ( 'NONE',  ( -3.491481338843133355E-15, 1.224646799147353207E-16, -1.000000000000000000 ) ) ;
#43 = CARTESIAN_POINT ( 'NONE',  ( 2.094888803305879698E-14, -7.365106914033905366E-16, 5.999999999999999112 ) ) ;
#44 = PRODUCT ( '42203', '42203', '', ( #88 ) ) ;
#45 = EDGE_LOOP ( 'NONE', ( #13 ) ) ;
#46 = PERSON_AND_ORGANIZATION ( #137, #100 ) ;
#47 = SHAPE_DEFINITION_REPRESENTATION ( #2, #183 ) ;
#48 = ORIENTED_EDGE ( 'NONE', *, *, #162, .F. ) ;
#49 = CALENDAR_DATE ( 2021, 1, 11 ) ;
#50 = COORDINATED_UNIVERSAL_TIME_OFFSET ( 1, 0, .AHEAD. ) ;
#51 = DIRECTION ( 'NONE',  ( 3.491481338843133355E-15, -1.224646799147353207E-16, 1.000000000000000000 ) ) ;
#52 = LOCAL_TIME ( 11, 35, 14.00000000000000000, #95 ) ;
#53 = CARTESIAN_POINT ( 'NONE',  ( 1.326762908760390423E-13, -4.653657836759941941E-15, 38.00000000000000000 ) ) ;
#54 = EDGE_CURVE ( 'NONE', #41, #41, #187, .T. ) ;
#55 = CC_DESIGN_APPROVAL ( #25, ( #22 ) ) ;
#56 = CC_DESIGN_PERSON_AND_ORGANIZATION_ASSIGNMENT ( #62, #109, ( #44 ) ) ;
#57 = CARTESIAN_POINT ( 'NONE',  ( 0.0000000000000000000, 0.0000000000000000000, 0.0000000000000000000 ) ) ;
#58 = AXIS2_PLACEMENT_3D ( 'NONE', #122, #155, #17 ) ;
#59 = DIRECTION ( 'NONE',  ( 0.0000000000000000000, 1.000000000000000000, 0.0000000000000000000 ) ) ;
#60 = ORIENTED_EDGE ( 'NONE', *, *, #29, .F. ) ;
#61 = DIRECTION ( 'NONE',  ( 3.491481338843133355E-15, -1.227517819005651059E-16, 1.000000000000000000 ) ) ;
#62 = PERSON_AND_ORGANIZATION ( #137, #100 ) ;
#63 = ORIENTED_EDGE ( 'NONE', *, *, #123, .F. ) ;
#64 = CC_DESIGN_SECURITY_CLASSIFICATION ( #67, ( #40 ) ) ;
#65 = ADVANCED_FACE ( 'NONE', ( #80 ), #75, .T. ) ;
#66 = PERSON_AND_ORGANIZATION_ROLE ( 'creator' ) ;
#67 = SECURITY_CLASSIFICATION ( '', '', #18 ) ;
#68 = ADVANCED_FACE ( 'NONE', ( #126, #197 ), #11, .T. ) ;
#69 = AXIS2_PLACEMENT_3D ( 'NONE', #43, #210, #104 ) ;
#70 = DIRECTION ( 'NONE',  ( 0.0000000000000000000, 1.000000000000000000, 0.0000000000000000000 ) ) ;
#71 = DIRECTION ( 'NONE',  ( -4.275831445896958607E-31, -1.000000000000000000, -1.224646799147353207E-16 ) ) ;
#72 = APPROVAL_PERSON_ORGANIZATION ( #199, #74, #170 ) ;
#73 = CC_DESIGN_DATE_AND_TIME_ASSIGNMENT ( #153, #32, ( #22 ) ) ;
#74 = APPROVAL ( #129, 'UNSPECIFIED' ) ;
#75 = PLANE ( 'NONE',  #97 ) ;
#76 = AXIS2_PLACEMENT_3D ( 'NONE', #57, #192, #177 ) ;
#77 = CARTESIAN_POINT ( 'NONE',  ( 2.094888803305879698E-14, -1.000000000000000444, 5.999999999999999112 ) ) ;
#78 = ORIENTED_EDGE ( 'NONE', *, *, #173, .F. ) ;
#79 = PERSON_AND_ORGANIZATION_ROLE ( 'creator' ) ;
#80 = FACE_OUTER_BOUND ( 'NONE', #213, .T. ) ;
#81 = CALENDAR_DATE ( 2021, 1, 11 ) ;
#82 = CIRCLE ( 'NONE', #174, 0.9999999999999988898 ) ;
#83 = AXIS2_PLACEMENT_3D ( 'NONE', #85, #118, #172 ) ;
#84 = AXIS2_PLACEMENT_3D ( 'NONE', #108, #184, #31 ) ;
#85 = CARTESIAN_POINT ( 'NONE',  ( -6.413803915257455362E-31, 2.249659577954771652E-32, -1.836986451539392583E-16 ) ) ;
#86 = CARTESIAN_POINT ( 'NONE',  ( 3.066876071900718944E-14, 1.499999999999995337, 8.783882181415000545 ) ) ;
#87 = AXIS2_PLACEMENT_3D ( 'NONE', #21, #51, #71 ) ;
#88 = MECHANICAL_CONTEXT ( 'NONE', #158, 'mechanical' ) ;
#89 = CARTESIAN_POINT ( 'NONE',  ( -8.571711116311299553E-31, -0.9999999999999988898, -2.455035638011300145E-16 ) ) ;
#90 = DIRECTION ( 'NONE',  ( -4.285855558155653280E-31, -1.000000000000000000, -1.227517819005651552E-16 ) ) ;
#91 = VERTEX_POINT ( 'NONE', #165 ) ;
#92 = CARTESIAN_POINT ( 'NONE',  ( 2.094888803305880013E-14, 1.124819836996387322E-32, 6.000000000000000000 ) ) ;
#93 = PERSON_AND_ORGANIZATION_ROLE ( 'classification_officer' ) ;
#94 = DIRECTION ( 'NONE',  ( -3.491481338843133355E-15, 1.224646799147353207E-16, -1.000000000000000000 ) ) ;
#95 = COORDINATED_UNIVERSAL_TIME_OFFSET ( 1, 0, .AHEAD. ) ;
#96 = EDGE_CURVE ( 'NONE', #159, #159, #82, .T. ) ;
#97 = AXIS2_PLACEMENT_3D ( 'NONE', #92, #141, #212 ) ;
#98 = ADVANCED_FACE ( 'NONE', ( #9 ), #23, .F. ) ;
#99 = DIRECTION ( 'NONE',  ( -3.491481338843133355E-15, 1.224646799147353207E-16, -1.000000000000000000 ) ) ;
#100 = ORGANIZATION ( 'UNSPECIFIED', 'UNSPECIFIED', '' ) ;
#101 = FACE_OUTER_BOUND ( 'NONE', #130, .T. ) ;
#102 = VERTEX_POINT ( 'NONE', #28 ) ;
#103 = DIRECTION ( 'NONE',  ( 4.275831445896958607E-31, 1.000000000000000000, 1.224646799147353207E-16 ) ) ;
#104 = DIRECTION ( 'NONE',  ( 0.0000000000000000000, -1.000000000000000000, 0.0000000000000000000 ) ) ;
#105 = LOCAL_TIME ( 11, 35, 14.00000000000000000, #50 ) ;
#106 = PERSON_AND_ORGANIZATION_ROLE ( 'design_supplier' ) ;
#107 = ADVANCED_FACE ( 'NONE', ( #119, #190 ), #207, .T. ) ;
#108 = CARTESIAN_POINT ( 'NONE',  ( 3.066876071900718944E-14, -3.417264983699237320E-16, 8.783882181415000545 ) ) ;
#109 = PERSON_AND_ORGANIZATION_ROLE ( 'design_owner' ) ;
#110 = APPROVAL_STATUS ( 'not_yet_approved' ) ;
#111 = ORIENTED_EDGE ( 'NONE', *, *, #54, .T. ) ;
#112 = APPROVAL_STATUS ( 'not_yet_approved' ) ;
#113 = AXIS2_PLACEMENT_3D ( 'NONE', #161, #175, #59 ) ;
#114 = CALENDAR_DATE ( 2021, 1, 11 ) ;
#115 = PLANE ( 'NONE',  #83 ) ;
#116 = AXIS2_PLACEMENT_3D ( 'NONE', #4, #125, #5 ) ;
#117 = CC_DESIGN_PERSON_AND_ORGANIZATION_ASSIGNMENT ( #46, #106, ( #40 ) ) ;
#118 = DIRECTION ( 'NONE',  ( 3.491481338843133355E-15, -1.224646799147353207E-16, 1.000000000000000000 ) ) ;
#119 = FACE_OUTER_BOUND ( 'NONE', #160, .T. ) ;
#120 = ADVANCED_FACE ( 'NONE', ( #36 ), #115, .F. ) ;
#121 = APPROVAL_PERSON_ORGANIZATION ( #167, #209, #218 ) ;
#122 = CARTESIAN_POINT ( 'NONE',  ( -6.413731847436034514E-31, 0.0000000000000000000, -1.836965810494968570E-16 ) ) ;
#123 = EDGE_CURVE ( 'NONE', #102, #102, #1, .T. ) ;
#124 = LOCAL_TIME ( 11, 35, 14.00000000000000000, #182 ) ;
#125 = DIRECTION ( 'NONE',  ( -3.491481338843133355E-15, 1.224646799147353207E-16, -1.000000000000000000 ) ) ;
#126 = FACE_OUTER_BOUND ( 'NONE', #163, .T. ) ;
#127 =( LENGTH_UNIT ( ) NAMED_UNIT ( * ) SI_UNIT ( .MILLI., .METRE. ) );
#128 = EDGE_LOOP ( 'NONE', ( #48 ) ) ;
#129 = APPROVAL_STATUS ( 'not_yet_approved' ) ;
#130 = EDGE_LOOP ( 'NONE', ( #204 ) ) ;
#131 = CIRCLE ( 'NONE', #113, 1.499999999999997558 ) ;
#132 = COORDINATED_UNIVERSAL_TIME_OFFSET ( 1, 0, .AHEAD. ) ;
#133 = FACE_BOUND ( 'NONE', #146, .T. ) ;
#134 = CC_DESIGN_PERSON_AND_ORGANIZATION_ASSIGNMENT ( #30, #79, ( #22 ) ) ;
#135 = FACE_OUTER_BOUND ( 'NONE', #214, .T. ) ;
#136 = CONICAL_SURFACE ( 'NONE', #39, 1.199999999999997957, 0.7853981633974450594 ) ;
#137 = PERSON ( 'UNSPECIFIED', 'UNSPECIFIED', 'UNSPECIFIED', ('UNSPECIFIED'), ('UNSPECIFIED'), ('UNSPECIFIED') ) ;
#138 =( NAMED_UNIT ( * ) SI_UNIT ( $, .STERADIAN. ) SOLID_ANGLE_UNIT ( ) );
#139 = FACE_OUTER_BOUND ( 'NONE', #45, .T. ) ;
#140 = ADVANCED_FACE ( 'NONE', ( #135, #133 ), #136, .T. ) ;
#141 = DIRECTION ( 'NONE',  ( 3.491481338843133355E-15, -1.224646799147353207E-16, 1.000000000000000000 ) ) ;
#142 = APPROVAL_PERSON_ORGANIZATION ( #220, #25, #205 ) ;
#143 = CC_DESIGN_APPROVAL ( #209, ( #67 ) ) ;
#144 =( NAMED_UNIT ( * ) PLANE_ANGLE_UNIT ( ) SI_UNIT ( $, .RADIAN. ) );
#145 = ORIENTED_EDGE ( 'NONE', *, *, #29, .T. ) ;
#146 = EDGE_LOOP ( 'NONE', ( #111 ) ) ;
#147 = APPROVAL_DATE_TIME ( #169, #74 ) ;
#148 = CARTESIAN_POINT ( 'NONE',  ( 0.0000000000000000000, 0.0000000000000000000, 0.0000000000000000000 ) ) ;
#149 = APPROVAL_DATE_TIME ( #19, #209 ) ;
#150 = APPLICATION_PROTOCOL_DEFINITION ( 'international standard', 'config_control_design', 1994, #35 ) ;
#151 = PERSON_AND_ORGANIZATION ( #137, #100 ) ;
#152 = UNCERTAINTY_MEASURE_WITH_UNIT (LENGTH_MEASURE( 1.000000000000000082E-05 ), #127, 'distance_accuracy_value', 'NONE');
#153 = DATE_AND_TIME ( #114, #189 ) ;
#154 = DIRECTION ( 'NONE',  ( 0.0000000000000000000, -1.000000000000000000, 0.0000000000000000000 ) ) ;
#155 = DIRECTION ( 'NONE',  ( 3.491481338843133355E-15, -1.227517819005651059E-16, 1.000000000000000000 ) ) ;
#156 = CC_DESIGN_PERSON_AND_ORGANIZATION_ASSIGNMENT ( #203, #66, ( #40 ) ) ;
#157 = AXIS2_PLACEMENT_3D ( 'NONE', #7, #61, #178 ) ;
#158 = APPLICATION_CONTEXT ( 'configuration controlled 3d designs of mechanical parts and assemblies' ) ;
#159 = VERTEX_POINT ( 'NONE', #89 ) ;
#160 = EDGE_LOOP ( 'NONE', ( #186 ) ) ;
#161 = CARTESIAN_POINT ( 'NONE',  ( 1.316288464743861212E-13, -4.616918432785521081E-15, 37.69999999999999574 ) ) ;
#162 = EDGE_CURVE ( 'NONE', #26, #26, #171, .T. ) ;
#163 = EDGE_LOOP ( 'NONE', ( #185 ) ) ;
#164 = CC_DESIGN_APPROVAL ( #74, ( #40 ) ) ;
#165 = CARTESIAN_POINT ( 'NONE',  ( 1.316288464743861212E-13, 1.499999999999993117, 37.69999999999999574 ) ) ;
#166 = ORIENTED_EDGE ( 'NONE', *, *, #96, .F. ) ;
#167 = PERSON_AND_ORGANIZATION ( #137, #100 ) ;
#168 = DATE_AND_TIME ( #215, #124 ) ;
#169 = DATE_AND_TIME ( #221, #52 ) ;
#170 = APPROVAL_ROLE ( '' ) ;
#171 = CIRCLE ( 'NONE', #69, 0.9999999999999997780 ) ;
#172 = DIRECTION ( 'NONE',  ( -4.275831445896958607E-31, -1.000000000000000000, -1.224646799147353207E-16 ) ) ;
#173 = EDGE_CURVE ( 'NONE', #91, #91, #131, .T. ) ;
#174 = AXIS2_PLACEMENT_3D ( 'NONE', #179, #27, #90 ) ;
#175 = DIRECTION ( 'NONE',  ( -3.491481338843133355E-15, 1.224646799147353207E-16, -1.000000000000000000 ) ) ;
#176 = CARTESIAN_POINT ( 'NONE',  ( 1.326762908760390423E-13, 1.199999999999993294, 38.00000000000000000 ) ) ;
#177 = DIRECTION ( 'NONE',  ( 1.000000000000000000, 0.0000000000000000000, 0.0000000000000000000 ) ) ;
#178 = DIRECTION ( 'NONE',  ( -4.348338603810381847E-31, -1.000000000000000000, -1.227517819005651059E-16 ) ) ;
#179 = CARTESIAN_POINT ( 'NONE',  ( -4.285855558155650652E-31, -7.481082693103428871E-33, -1.227517819005650073E-16 ) ) ;
#180 = PLANE ( 'NONE',  #116 ) ;
#181 = CARTESIAN_POINT ( 'NONE',  ( 1.326762908760390423E-13, -4.653657836759941941E-15, 38.00000000000000000 ) ) ;
#182 = COORDINATED_UNIVERSAL_TIME_OFFSET ( 1, 0, .AHEAD. ) ;
#183 = ADVANCED_BREP_SHAPE_REPRESENTATION ( '42203', ( #10, #12, #76 ), #206 ) ;
#184 = DIRECTION ( 'NONE',  ( -3.491481338843133355E-15, 1.227517819005651059E-16, -1.000000000000000000 ) ) ;
#185 = ORIENTED_EDGE ( 'NONE', *, *, #173, .T. ) ;
#186 = ORIENTED_EDGE ( 'NONE', *, *, #96, .T. ) ;
#187 = CIRCLE ( 'NONE', #222, 1.199999999999997957 ) ;
#188 = DATE_AND_TIME ( #49, #8 ) ;
#189 = LOCAL_TIME ( 11, 35, 14.00000000000000000, #132 ) ;
#190 = FACE_OUTER_BOUND ( 'NONE', #200, .T. ) ;
#191 = ADVANCED_FACE ( 'NONE', ( #101, #194 ), #34, .F. ) ;
#192 = DIRECTION ( 'NONE',  ( 0.0000000000000000000, 0.0000000000000000000, 1.000000000000000000 ) ) ;
#193 = CLOSED_SHELL ( 'NONE', ( #65, #107, #120 ) ) ;
#194 = FACE_OUTER_BOUND ( 'NONE', #219, .T. ) ;
#195 = ADVANCED_FACE ( 'NONE', ( #139 ), #180, .F. ) ;
#196 = VERTEX_POINT ( 'NONE', #86 ) ;
#197 = FACE_OUTER_BOUND ( 'NONE', #198, .T. ) ;
#198 = EDGE_LOOP ( 'NONE', ( #60 ) ) ;
#199 = PERSON_AND_ORGANIZATION ( #137, #100 ) ;
#200 = EDGE_LOOP ( 'NONE', ( #63 ) ) ;
#201 = PRODUCT_RELATED_PRODUCT_CATEGORY ( 'detail', '', ( #44 ) ) ;
#202 = ORIENTED_EDGE ( 'NONE', *, *, #123, .T. ) ;
#203 = PERSON_AND_ORGANIZATION ( #137, #100 ) ;
#204 = ORIENTED_EDGE ( 'NONE', *, *, #162, .T. ) ;
#205 = APPROVAL_ROLE ( '' ) ;
#206 =( GEOMETRIC_REPRESENTATION_CONTEXT ( 3 ) GLOBAL_UNCERTAINTY_ASSIGNED_CONTEXT ( ( #152 ) ) GLOBAL_UNIT_ASSIGNED_CONTEXT ( ( #127, #144, #138 ) ) REPRESENTATION_CONTEXT ( 'NONE', 'WORKASPACE' ) );
#207 = CYLINDRICAL_SURFACE ( 'NONE', #58, 0.9999999999999993339 ) ;
#208 = AXIS2_PLACEMENT_3D ( 'NONE', #38, #3, #154 ) ;
#209 = APPROVAL ( #110, 'UNSPECIFIED' ) ;
#210 = DIRECTION ( 'NONE',  ( 3.491481338843133355E-15, -1.227517819005651059E-16, 1.000000000000000000 ) ) ;
#211 = CIRCLE ( 'NONE', #84, 1.499999999999995781 ) ;
#212 = DIRECTION ( 'NONE',  ( -4.275831445896958607E-31, -1.000000000000000000, -1.224646799147353207E-16 ) ) ;
#213 = EDGE_LOOP ( 'NONE', ( #202 ) ) ;
#214 = EDGE_LOOP ( 'NONE', ( #78 ) ) ;
#215 = CALENDAR_DATE ( 2021, 1, 11 ) ;
#216 = CC_DESIGN_DATE_AND_TIME_ASSIGNMENT ( #168, #14, ( #67 ) ) ;
#217 = EDGE_LOOP ( 'NONE', ( #166 ) ) ;
#218 = APPROVAL_ROLE ( '' ) ;
#219 = EDGE_LOOP ( 'NONE', ( #145 ) ) ;
#220 = PERSON_AND_ORGANIZATION ( #137, #100 ) ;
#221 = CALENDAR_DATE ( 2021, 1, 11 ) ;
#222 = AXIS2_PLACEMENT_3D ( 'NONE', #181, #94, #6 ) ;
#223 = COORDINATED_UNIVERSAL_TIME_OFFSET ( 1, 0, .AHEAD. ) ;
ENDSEC;
END-ISO-10303-21;
