ISO-10303-21;
HEADER;
FILE_DESCRIPTION (( 'STEP AP203' ),
    '1' );
FILE_NAME ('42201.step',
    '2021-11-01T09:16:15',
    ( '' ),
    ( '' ),
    'SwSTEP 2.0',
    'SolidWorks 2019',
    '' );
FILE_SCHEMA (( 'CONFIG_CONTROL_DESIGN' ));
ENDSEC;

DATA;
#1 = APPLICATION_PROTOCOL_DEFINITION ( 'international standard', 'config_control_design', 1994, #34 ) ;
#2 = CC_DESIGN_APPROVAL ( #41, ( #92 ) ) ;
#3 = DATE_AND_TIME ( #43, #151 ) ;
#4 = EDGE_LOOP ( 'NONE', ( #171 ) ) ;
#5 = CLOSED_SHELL ( 'NONE', ( #123, #182, #114, #138, #19 ) ) ;
#6 = CIRCLE ( 'NONE', #10, 1.250000000000000222 ) ;
#7 = DIRECTION ( 'NONE',  ( -3.491481338843133355E-15, 1.224646799147353207E-16, -1.000000000000000000 ) ) ;
#8 = CARTESIAN_POINT ( 'NONE',  ( -6.413803915257455362E-31, 2.249659577954771652E-32, -1.836986451539392583E-16 ) ) ;
#9 = FACE_OUTER_BOUND ( 'NONE', #21, .T. ) ;
#10 = AXIS2_PLACEMENT_3D ( 'NONE', #79, #31, #215 ) ;
#11 = DIRECTION ( 'NONE',  ( 0.0000000000000000000, 1.000000000000000000, 0.0000000000000000000 ) ) ;
#12 = CARTESIAN_POINT ( 'NONE',  ( 1.326762908760390423E-13, -4.653657836759941941E-15, 38.00000000000000000 ) ) ;
#13 = CALENDAR_DATE ( 2021, 1, 11 ) ;
#14 = CC_DESIGN_APPROVAL ( #104, ( #63 ) ) ;
#15 = TOROIDAL_SURFACE ( 'NONE', #55, 9.250000000000000000, 8.000000000000000000 ) ;
#16 = AXIS2_PLACEMENT_3D ( 'NONE', #136, #173, #189 ) ;
#17 = CARTESIAN_POINT ( 'NONE',  ( 2.444036937190193349E-14, -1.250000000000001110, 7.000000000000000000 ) ) ;
#18 = AXIS2_PLACEMENT_3D ( 'NONE', #49, #80, #220 ) ;
#19 = ADVANCED_FACE ( 'NONE', ( #150 ), #214, .F. ) ;
#20 =( NAMED_UNIT ( * ) SI_UNIT ( $, .STERADIAN. ) SOLID_ANGLE_UNIT ( ) );
#21 = EDGE_LOOP ( 'NONE', ( #199 ) ) ;
#22 = ORIENTED_EDGE ( 'NONE', *, *, #180, .T. ) ;
#23 = PERSON_AND_ORGANIZATION ( #217, #103 ) ;
#24 = EDGE_LOOP ( 'NONE', ( #202 ) ) ;
#25 = DATE_AND_TIME ( #149, #57 ) ;
#26 = CC_DESIGN_PERSON_AND_ORGANIZATION_ASSIGNMENT ( #46, #128, ( #37 ) ) ;
#27 = FACE_OUTER_BOUND ( 'NONE', #24, .T. ) ;
#28 = AXIS2_PLACEMENT_3D ( 'NONE', #172, #137, #33 ) ;
#29 = DESIGN_CONTEXT ( 'detailed design', #99, 'design' ) ;
#30 = PLANE ( 'NONE',  #111 ) ;
#31 = DIRECTION ( 'NONE',  ( 3.491481338843133355E-15, -1.227517819005651059E-16, 1.000000000000000000 ) ) ;
#32 = DIRECTION ( 'NONE',  ( -3.491481338843133355E-15, 1.227517819005651059E-16, -1.000000000000000000 ) ) ;
#33 = DIRECTION ( 'NONE',  ( -4.285855558155654155E-31, -1.000000000000000000, -1.227517819005651059E-16 ) ) ;
#34 = APPLICATION_CONTEXT ( 'configuration controlled 3d designs of mechanical parts and assemblies' ) ;
#35 = COORDINATED_UNIVERSAL_TIME_OFFSET ( 1, 0, .AHEAD. ) ;
#36 = CC_DESIGN_APPROVAL ( #157, ( #37 ) ) ;
#37 = SECURITY_CLASSIFICATION ( '', '', #72 ) ;
#38 = DIRECTION ( 'NONE',  ( 0.0000000000000000000, 0.0000000000000000000, 1.000000000000000000 ) ) ;
#39 = PRODUCT_RELATED_PRODUCT_CATEGORY ( 'detail', '', ( #86 ) ) ;
#40 = APPROVAL_STATUS ( 'not_yet_approved' ) ;
#41 = APPROVAL ( #143, 'UNSPECIFIED' ) ;
#42 = EDGE_LOOP ( 'NONE', ( #56 ) ) ;
#43 = CALENDAR_DATE ( 2021, 1, 11 ) ;
#44 = ORIENTED_EDGE ( 'NONE', *, *, #180, .F. ) ;
#45 = AXIS2_PLACEMENT_3D ( 'NONE', #62, #48, #118 ) ;
#46 = PERSON_AND_ORGANIZATION ( #217, #103 ) ;
#47 = AXIS2_PLACEMENT_3D ( 'NONE', #213, #129, #113 ) ;
#48 = DIRECTION ( 'NONE',  ( 3.491481338843133355E-15, -1.227517819005651059E-16, 1.000000000000000000 ) ) ;
#49 = CARTESIAN_POINT ( 'NONE',  ( 1.316288464743861212E-13, -4.616918432785521081E-15, 37.69999999999999574 ) ) ;
#50 = CARTESIAN_POINT ( 'NONE',  ( 2.444036937190193349E-14, 0.0000000000000000000, 7.000000000000000000 ) ) ;
#51 = CIRCLE ( 'NONE', #45, 1.250000000000000222 ) ;
#52 = PERSON_AND_ORGANIZATION_ROLE ( 'creator' ) ;
#53 = CARTESIAN_POINT ( 'NONE',  ( 0.0000000000000000000, 0.0000000000000000000, 0.0000000000000000000 ) ) ;
#54 = DATE_AND_TIME ( #73, #219 ) ;
#55 = AXIS2_PLACEMENT_3D ( 'NONE', #50, #158, #203 ) ;
#56 = ORIENTED_EDGE ( 'NONE', *, *, #83, .F. ) ;
#57 = LOCAL_TIME ( 10, 16, 15.00000000000000000, #167 ) ;
#58 =( GEOMETRIC_REPRESENTATION_CONTEXT ( 3 ) GLOBAL_UNCERTAINTY_ASSIGNED_CONTEXT ( ( #216 ) ) GLOBAL_UNIT_ASSIGNED_CONTEXT ( ( #126, #196, #20 ) ) REPRESENTATION_CONTEXT ( 'NONE', 'WORKASPACE' ) );
#59 = PERSON_AND_ORGANIZATION_ROLE ( 'design_supplier' ) ;
#60 = EDGE_LOOP ( 'NONE', ( #95 ) ) ;
#61 = DIRECTION ( 'NONE',  ( 3.491481338843133355E-15, -1.227517819005651059E-16, 1.000000000000000000 ) ) ;
#62 = CARTESIAN_POINT ( 'NONE',  ( 2.444036937190193349E-14, -8.592624733039556917E-16, 7.000000000000000000 ) ) ;
#63 = PRODUCT_DEFINITION_FORMATION_WITH_SPECIFIED_SOURCE ( 'ANY', '', #86, .NOT_KNOWN. ) ;
#64 = DIRECTION ( 'NONE',  ( 4.275831445896958607E-31, 1.000000000000000000, 1.224646799147353207E-16 ) ) ;
#65 = FACE_OUTER_BOUND ( 'NONE', #75, .T. ) ;
#66 = COORDINATED_UNIVERSAL_TIME_OFFSET ( 1, 0, .AHEAD. ) ;
#67 = APPLICATION_PROTOCOL_DEFINITION ( 'international standard', 'config_control_design', 1994, #99 ) ;
#68 = CC_DESIGN_DATE_AND_TIME_ASSIGNMENT ( #3, #188, ( #37 ) ) ;
#69 = PERSON_AND_ORGANIZATION ( #217, #103 ) ;
#70 = AXIS2_PLACEMENT_3D ( 'NONE', #8, #122, #183 ) ;
#71 = CALENDAR_DATE ( 2021, 1, 11 ) ;
#72 = SECURITY_CLASSIFICATION_LEVEL ( 'unclassified' ) ;
#73 = CALENDAR_DATE ( 2021, 1, 11 ) ;
#74 = PERSON_AND_ORGANIZATION ( #217, #103 ) ;
#75 = EDGE_LOOP ( 'NONE', ( #78 ) ) ;
#76 = CC_DESIGN_PERSON_AND_ORGANIZATION_ASSIGNMENT ( #201, #169, ( #63 ) ) ;
#77 = ORIENTED_EDGE ( 'NONE', *, *, #210, .F. ) ;
#78 = ORIENTED_EDGE ( 'NONE', *, *, #210, .T. ) ;
#79 = CARTESIAN_POINT ( 'NONE',  ( 2.444036937190193349E-14, -8.592624733039556917E-16, 7.000000000000000000 ) ) ;
#80 = DIRECTION ( 'NONE',  ( -3.491481338843133355E-15, 1.224646799147353207E-16, -1.000000000000000000 ) ) ;
#81 = FACE_OUTER_BOUND ( 'NONE', #152, .T. ) ;
#82 = DIRECTION ( 'NONE',  ( 0.0000000000000000000, 1.000000000000000000, 0.0000000000000000000 ) ) ;
#83 = EDGE_CURVE ( 'NONE', #165, #165, #166, .T. ) ;
#84 = VERTEX_POINT ( 'NONE', #17 ) ;
#85 = ADVANCED_BREP_SHAPE_REPRESENTATION ( '42201', ( #223, #144, #116 ), #58 ) ;
#86 = PRODUCT ( '42201', '42201', '', ( #162 ) ) ;
#87 = DIRECTION ( 'NONE',  ( 1.000000000000000000, 0.0000000000000000000, 0.0000000000000000000 ) ) ;
#88 = AXIS2_PLACEMENT_3D ( 'NONE', #119, #7, #64 ) ;
#89 = PERSON_AND_ORGANIZATION_ROLE ( 'design_owner' ) ;
#90 = APPROVAL_ROLE ( '' ) ;
#91 = EDGE_LOOP ( 'NONE', ( #44 ) ) ;
#92 = PRODUCT_DEFINITION ( 'UNKNOWN', '', #63, #29 ) ;
#93 = APPROVAL_PERSON_ORGANIZATION ( #110, #157, #107 ) ;
#94 = DATE_TIME_ROLE ( 'creation_date' ) ;
#95 = ORIENTED_EDGE ( 'NONE', *, *, #148, .F. ) ;
#96 = EDGE_LOOP ( 'NONE', ( #22 ) ) ;
#97 = DIRECTION ( 'NONE',  ( -4.275831445896958607E-31, -1.000000000000000000, -1.224646799147353207E-16 ) ) ;
#98 = CARTESIAN_POINT ( 'NONE',  ( 1.326762908760390423E-13, -4.653657836759941941E-15, 38.00000000000000000 ) ) ;
#99 = APPLICATION_CONTEXT ( 'configuration controlled 3d designs of mechanical parts and assemblies' ) ;
#100 = PLANE ( 'NONE',  #70 ) ;
#101 = EDGE_CURVE ( 'NONE', #198, #198, #156, .T. ) ;
#102 = FACE_OUTER_BOUND ( 'NONE', #4, .T. ) ;
#103 = ORGANIZATION ( 'UNSPECIFIED', 'UNSPECIFIED', '' ) ;
#104 = APPROVAL ( #209, 'UNSPECIFIED' ) ;
#105 = VERTEX_POINT ( 'NONE', #106 ) ;
#106 = CARTESIAN_POINT ( 'NONE',  ( -1.071463889538912970E-30, -1.249999999999999778, -3.068794547514126907E-16 ) ) ;
#107 = APPROVAL_ROLE ( '' ) ;
#108 = SHAPE_DEFINITION_REPRESENTATION ( #124, #85 ) ;
#109 = EDGE_LOOP ( 'NONE', ( #77 ) ) ;
#110 = PERSON_AND_ORGANIZATION ( #217, #103 ) ;
#111 = AXIS2_PLACEMENT_3D ( 'NONE', #139, #205, #97 ) ;
#112 = COORDINATED_UNIVERSAL_TIME_OFFSET ( 1, 0, .AHEAD. ) ;
#113 = DIRECTION ( 'NONE',  ( -4.275831445896958607E-31, -1.000000000000000000, -1.224646799147353207E-16 ) ) ;
#114 = ADVANCED_FACE ( 'NONE', ( #81 ), #218, .F. ) ;
#115 = FACE_OUTER_BOUND ( 'NONE', #42, .T. ) ;
#116 = AXIS2_PLACEMENT_3D ( 'NONE', #53, #38, #87 ) ;
#117 = AXIS2_PLACEMENT_3D ( 'NONE', #154, #32, #177 ) ;
#118 = DIRECTION ( 'NONE',  ( 0.0000000000000000000, -1.000000000000000000, 0.0000000000000000000 ) ) ;
#119 = CARTESIAN_POINT ( 'NONE',  ( 1.326762908760390423E-13, 8.998558695971062171E-33, 38.00000000000000000 ) ) ;
#120 = DIRECTION ( 'NONE',  ( -3.491481338843133355E-15, 1.224646799147353207E-16, -1.000000000000000000 ) ) ;
#121 = CARTESIAN_POINT ( 'NONE',  ( -5.357319447694564848E-31, -3.714082703162446882E-33, -1.534397273757063207E-16 ) ) ;
#122 = DIRECTION ( 'NONE',  ( 3.491481338843133355E-15, -1.224646799147353207E-16, 1.000000000000000000 ) ) ;
#123 = ADVANCED_FACE ( 'NONE', ( #9, #115 ), #153, .T. ) ;
#124 = PRODUCT_DEFINITION_SHAPE ( 'NONE', 'NONE',  #92 ) ;
#125 = APPROVAL_PERSON_ORGANIZATION ( #74, #104, #90 ) ;
#126 =( LENGTH_UNIT ( ) NAMED_UNIT ( * ) SI_UNIT ( .MILLI., .METRE. ) );
#127 = APPROVAL_DATE_TIME ( #146, #41 ) ;
#128 = PERSON_AND_ORGANIZATION_ROLE ( 'classification_officer' ) ;
#129 = DIRECTION ( 'NONE',  ( 3.491481338843133355E-15, -1.224646799147353207E-16, 1.000000000000000000 ) ) ;
#130 = ADVANCED_FACE ( 'NONE', ( #135, #204 ), #159, .T. ) ;
#131 = CLOSED_SHELL ( 'NONE', ( #160, #130, #221 ) ) ;
#132 = EDGE_LOOP ( 'NONE', ( #211 ) ) ;
#133 = COORDINATED_UNIVERSAL_TIME_OFFSET ( 1, 0, .AHEAD. ) ;
#134 = DIRECTION ( 'NONE',  ( -4.285855558155652404E-31, -1.000000000000000000, -1.227517819005651059E-16 ) ) ;
#135 = FACE_OUTER_BOUND ( 'NONE', #96, .T. ) ;
#136 = CARTESIAN_POINT ( 'NONE',  ( 0.0000000000000000000, 0.0000000000000000000, 0.0000000000000000000 ) ) ;
#137 = DIRECTION ( 'NONE',  ( 3.491481338843133355E-15, -1.227517819005651059E-16, 1.000000000000000000 ) ) ;
#138 = ADVANCED_FACE ( 'NONE', ( #102, #27 ), #15, .F. ) ;
#139 = CARTESIAN_POINT ( 'NONE',  ( 2.444036937190193349E-14, 1.124819836996387322E-32, 7.000000000000000000 ) ) ;
#140 = AXIS2_PLACEMENT_3D ( 'NONE', #121, #61, #134 ) ;
#141 = PERSON_AND_ORGANIZATION ( #217, #103 ) ;
#142 = DATE_AND_TIME ( #13, #163 ) ;
#143 = APPROVAL_STATUS ( 'not_yet_approved' ) ;
#144 = MANIFOLD_SOLID_BREP ( 'Corps-Déplacer/Copier1[2]', #131 ) ;
#145 = AXIS2_PLACEMENT_3D ( 'NONE', #12, #192, #82 ) ;
#146 = DATE_AND_TIME ( #71, #147 ) ;
#147 = LOCAL_TIME ( 10, 16, 15.00000000000000000, #66 ) ;
#148 = EDGE_CURVE ( 'NONE', #161, #161, #207, .T. ) ;
#149 = CALENDAR_DATE ( 2021, 1, 11 ) ;
#150 = FACE_OUTER_BOUND ( 'NONE', #170, .T. ) ;
#151 = LOCAL_TIME ( 10, 16, 15.00000000000000000, #112 ) ;
#152 = EDGE_LOOP ( 'NONE', ( #200 ) ) ;
#153 = CYLINDRICAL_SURFACE ( 'NONE', #16, 1.499999999999995781 ) ;
#154 = CARTESIAN_POINT ( 'NONE',  ( 3.136856286925321825E-14, -2.435780159241994779E-16, 8.984313483298429048 ) ) ;
#155 = CC_DESIGN_SECURITY_CLASSIFICATION ( #37, ( #63 ) ) ;
#156 = CIRCLE ( 'NONE', #185, 1.199999999999997957 ) ;
#157 = APPROVAL ( #40, 'UNSPECIFIED' ) ;
#158 = DIRECTION ( 'NONE',  ( 3.491481338843133355E-15, -1.227517819005651059E-16, 1.000000000000000000 ) ) ;
#159 = CYLINDRICAL_SURFACE ( 'NONE', #28, 1.250000000000000000 ) ;
#160 = ADVANCED_FACE ( 'NONE', ( #65 ), #30, .T. ) ;
#161 = VERTEX_POINT ( 'NONE', #184 ) ;
#162 = MECHANICAL_CONTEXT ( 'NONE', #34, 'mechanical' ) ;
#163 = LOCAL_TIME ( 10, 16, 15.00000000000000000, #35 ) ;
#164 = CC_DESIGN_PERSON_AND_ORGANIZATION_ASSIGNMENT ( #141, #52, ( #92 ) ) ;
#165 = VERTEX_POINT ( 'NONE', #206 ) ;
#166 = CIRCLE ( 'NONE', #117, 1.499999999999995781 ) ;
#167 = COORDINATED_UNIVERSAL_TIME_OFFSET ( 1, 0, .AHEAD. ) ;
#168 = ORIENTED_EDGE ( 'NONE', *, *, #194, .F. ) ;
#169 = PERSON_AND_ORGANIZATION_ROLE ( 'creator' ) ;
#170 = EDGE_LOOP ( 'NONE', ( #168 ) ) ;
#171 = ORIENTED_EDGE ( 'NONE', *, *, #194, .T. ) ;
#172 = CARTESIAN_POINT ( 'NONE',  ( -6.413731847436034514E-31, 0.0000000000000000000, -1.836965810494968570E-16 ) ) ;
#173 = DIRECTION ( 'NONE',  ( -3.491481338843133355E-15, 1.224646799147353207E-16, -1.000000000000000000 ) ) ;
#174 = CC_DESIGN_DATE_AND_TIME_ASSIGNMENT ( #142, #94, ( #92 ) ) ;
#175 = APPROVAL_PERSON_ORGANIZATION ( #179, #41, #197 ) ;
#176 = CONICAL_SURFACE ( 'NONE', #145, 1.199999999999997957, 0.7853981633974450594 ) ;
#177 = DIRECTION ( 'NONE',  ( 0.0000000000000000000, 1.000000000000000000, 0.0000000000000000000 ) ) ;
#178 = FACE_BOUND ( 'NONE', #132, .T. ) ;
#179 = PERSON_AND_ORGANIZATION ( #217, #103 ) ;
#180 = EDGE_CURVE ( 'NONE', #105, #105, #222, .T. ) ;
#181 = CARTESIAN_POINT ( 'NONE',  ( 2.444036937190193349E-14, -1.250000000000001110, 7.000000000000000000 ) ) ;
#182 = ADVANCED_FACE ( 'NONE', ( #193, #178 ), #176, .T. ) ;
#183 = DIRECTION ( 'NONE',  ( -4.275831445896958607E-31, -1.000000000000000000, -1.224646799147353207E-16 ) ) ;
#184 = CARTESIAN_POINT ( 'NONE',  ( 1.316288464743861212E-13, 1.499999999999993117, 37.69999999999999574 ) ) ;
#185 = AXIS2_PLACEMENT_3D ( 'NONE', #98, #120, #11 ) ;
#186 = APPROVAL_DATE_TIME ( #25, #157 ) ;
#187 = CC_DESIGN_PERSON_AND_ORGANIZATION_ASSIGNMENT ( #69, #89, ( #86 ) ) ;
#188 = DATE_TIME_ROLE ( 'classification_date' ) ;
#189 = DIRECTION ( 'NONE',  ( 4.275831445896958607E-31, 1.000000000000000000, 1.224646799147353207E-16 ) ) ;
#190 = FACE_OUTER_BOUND ( 'NONE', #91, .T. ) ;
#191 = CC_DESIGN_PERSON_AND_ORGANIZATION_ASSIGNMENT ( #23, #59, ( #63 ) ) ;
#192 = DIRECTION ( 'NONE',  ( -3.491481338843133355E-15, 1.224646799147353207E-16, -1.000000000000000000 ) ) ;
#193 = FACE_OUTER_BOUND ( 'NONE', #60, .T. ) ;
#194 = EDGE_CURVE ( 'NONE', #195, #195, #6, .T. ) ;
#195 = VERTEX_POINT ( 'NONE', #181 ) ;
#196 =( NAMED_UNIT ( * ) PLANE_ANGLE_UNIT ( ) SI_UNIT ( $, .RADIAN. ) );
#197 = APPROVAL_ROLE ( '' ) ;
#198 = VERTEX_POINT ( 'NONE', #208 ) ;
#199 = ORIENTED_EDGE ( 'NONE', *, *, #148, .T. ) ;
#200 = ORIENTED_EDGE ( 'NONE', *, *, #101, .F. ) ;
#201 = PERSON_AND_ORGANIZATION ( #217, #103 ) ;
#202 = ORIENTED_EDGE ( 'NONE', *, *, #83, .T. ) ;
#203 = DIRECTION ( 'NONE',  ( -4.347433052424081572E-31, -1.000000000000000000, -1.227517819005651059E-16 ) ) ;
#204 = FACE_OUTER_BOUND ( 'NONE', #109, .T. ) ;
#205 = DIRECTION ( 'NONE',  ( 3.491481338843133355E-15, -1.224646799147353207E-16, 1.000000000000000000 ) ) ;
#206 = CARTESIAN_POINT ( 'NONE',  ( 3.136856286925321825E-14, 1.499999999999995559, 8.984313483298429048 ) ) ;
#207 = CIRCLE ( 'NONE', #18, 1.499999999999997558 ) ;
#208 = CARTESIAN_POINT ( 'NONE',  ( 1.326762908760390423E-13, 1.199999999999993294, 38.00000000000000000 ) ) ;
#209 = APPROVAL_STATUS ( 'not_yet_approved' ) ;
#210 = EDGE_CURVE ( 'NONE', #84, #84, #51, .T. ) ;
#211 = ORIENTED_EDGE ( 'NONE', *, *, #101, .T. ) ;
#212 = APPROVAL_DATE_TIME ( #54, #104 ) ;
#213 = CARTESIAN_POINT ( 'NONE',  ( 2.444036937190193349E-14, 1.124819836996387322E-32, 7.000000000000000000 ) ) ;
#214 = PLANE ( 'NONE',  #47 ) ;
#215 = DIRECTION ( 'NONE',  ( 0.0000000000000000000, -1.000000000000000000, 0.0000000000000000000 ) ) ;
#216 = UNCERTAINTY_MEASURE_WITH_UNIT (LENGTH_MEASURE( 1.000000000000000082E-05 ), #126, 'distance_accuracy_value', 'NONE');
#217 = PERSON ( 'UNSPECIFIED', 'UNSPECIFIED', 'UNSPECIFIED', ('UNSPECIFIED'), ('UNSPECIFIED'), ('UNSPECIFIED') ) ;
#218 = PLANE ( 'NONE',  #88 ) ;
#219 = LOCAL_TIME ( 10, 16, 15.00000000000000000, #133 ) ;
#220 = DIRECTION ( 'NONE',  ( 0.0000000000000000000, 1.000000000000000000, 0.0000000000000000000 ) ) ;
#221 = ADVANCED_FACE ( 'NONE', ( #190 ), #100, .F. ) ;
#222 = CIRCLE ( 'NONE', #140, 1.249999999999999778 ) ;
#223 = MANIFOLD_SOLID_BREP ( 'Corps-Déplacer/Copier1[1]', #5 ) ;
ENDSEC;
END-ISO-10303-21;
