ISO-10303-21;
HEADER;
FILE_DESCRIPTION (( 'STEP AP203' ),
    '1' );
FILE_NAME ('42200.step',
    '2021-09-03T07:22:23',
    ( '' ),
    ( '' ),
    'SwSTEP 2.0',
    'SolidWorks 2019',
    '' );
FILE_SCHEMA (( 'CONFIG_CONTROL_DESIGN' ));
ENDSEC;

DATA;
#1 = EDGE_LOOP ( 'NONE', ( #203, #44 ) ) ;
#2 = ORIENTED_EDGE ( 'NONE', *, *, #103, .F. ) ;
#3 = EDGE_CURVE ( 'NONE', #23, #275, #50, .T. ) ;
#4 = CARTESIAN_POINT ( 'NONE',  ( 5.237222008264700033E-14, 1.699999999999991962, 15.00000000000000000 ) ) ;
#5 = ORIENTED_EDGE ( 'NONE', *, *, #53, .F. ) ;
#6 = AXIS2_PLACEMENT_3D ( 'NONE', #99, #37, #68 ) ;
#7 = EDGE_CURVE ( 'NONE', #236, #88, #124, .T. ) ;
#8 = AXIS2_PLACEMENT_3D ( 'NONE', #202, #177, #225 ) ;
#9 = DIRECTION ( 'NONE',  ( 4.275831445896959482E-31, 1.000000000000000000, 1.224646799147353454E-16 ) ) ;
#10 = CARTESIAN_POINT ( 'NONE',  ( 1.810424303719464358E-13, -1.300000000000004485, 52.00000000000000000 ) ) ;
#11 = AXIS2_PLACEMENT_3D ( 'NONE', #109, #211, #262 ) ;
#12 = DIRECTION ( 'NONE',  ( -3.491481338843133355E-15, 1.224646799147353454E-16, -1.000000000000000000 ) ) ;
#13 = CC_DESIGN_PERSON_AND_ORGANIZATION_ASSIGNMENT ( #247, #95, ( #261 ) ) ;
#14 = PERSON_AND_ORGANIZATION_ROLE ( 'creator' ) ;
#15 = VECTOR ( 'NONE', #270, 999.9999999999998863 ) ;
#16 = CALENDAR_DATE ( 2021, 3, 9 ) ;
#17 = CARTESIAN_POINT ( 'NONE',  ( 2.817750958997191801E-14, -1.699999999999995515, 15.00000000000000000 ) ) ;
#18 = DESIGN_CONTEXT ( 'detailed design', #120, 'design' ) ;
#19 = AXIS2_PLACEMENT_3D ( 'NONE', #216, #240, #143 ) ;
#20 = EDGE_LOOP ( 'NONE', ( #54, #128, #184, #2 ) ) ;
#21 = CC_DESIGN_PERSON_AND_ORGANIZATION_ASSIGNMENT ( #82, #86, ( #266 ) ) ;
#22 = ORIENTED_EDGE ( 'NONE', *, *, #103, .T. ) ;
#23 = VERTEX_POINT ( 'NONE', #168 ) ;
#24 = EDGE_CURVE ( 'NONE', #289, #84, #217, .T. ) ;
#25 = DIRECTION ( 'NONE',  ( 3.491481338843133355E-15, -1.224646799147353454E-16, 1.000000000000000000 ) ) ;
#26 = EDGE_LOOP ( 'NONE', ( #191, #254, #132, #322 ) ) ;
#27 = ORIENTED_EDGE ( 'NONE', *, *, #139, .T. ) ;
#28 = DIRECTION ( 'NONE',  ( 4.275831445896959482E-31, 1.000000000000000000, 1.224646799147353207E-16 ) ) ;
#29 = PLANE ( 'NONE',  #19 ) ;
#30 = VECTOR ( 'NONE', #286, 1000.000000000000000 ) ;
#31 = EDGE_LOOP ( 'NONE', ( #333, #179 ) ) ;
#32 = DIRECTION ( 'NONE',  ( 0.0000000000000000000, 1.000000000000000000, 0.0000000000000000000 ) ) ;
#33 = DIRECTION ( 'NONE',  ( -3.491481338843133355E-15, 1.224646799147353454E-16, -1.000000000000000000 ) ) ;
#34 = DIRECTION ( 'NONE',  ( 0.0000000000000000000, 1.000000000000000000, 0.0000000000000000000 ) ) ;
#35 = LOCAL_TIME ( 9, 22, 23.00000000000000000, #77 ) ;
#36 = CARTESIAN_POINT ( 'NONE',  ( 1.801604370843057064E-13, -6.319177483600344531E-15, 51.60000000000000853 ) ) ;
#37 = DIRECTION ( 'NONE',  ( -3.491481338843133355E-15, 1.224646799147353454E-16, -1.000000000000000000 ) ) ;
#38 = EDGE_CURVE ( 'NONE', #275, #23, #263, .T. ) ;
#39 = COORDINATED_UNIVERSAL_TIME_OFFSET ( 1, 0, .AHEAD. ) ;
#40 = CARTESIAN_POINT ( 'NONE',  ( 1.801604370843057064E-13, -6.319177483600344531E-15, 51.60000000000000853 ) ) ;
#41 = DIRECTION ( 'NONE',  ( -3.491481338843133355E-15, 1.224646799147353454E-16, -1.000000000000000000 ) ) ;
#42 = DIRECTION ( 'NONE',  ( 0.0000000000000000000, 0.0000000000000000000, 1.000000000000000000 ) ) ;
#43 = CARTESIAN_POINT ( 'NONE',  ( 3.566419185586805452E-15, -1.250931457503866335E-16, 1.021463052346859079 ) ) ;
#44 = ORIENTED_EDGE ( 'NONE', *, *, #152, .F. ) ;
#45 = VERTEX_POINT ( 'NONE', #330 ) ;
#46 = MECHANICAL_CONTEXT ( 'NONE', #60, 'mechanical' ) ;
#47 = AXIS2_PLACEMENT_3D ( 'NONE', #253, #25, #320 ) ;
#48 = APPROVAL_STATUS ( 'not_yet_approved' ) ;
#49 = FACE_OUTER_BOUND ( 'NONE', #291, .T. ) ;
#50 = CIRCLE ( 'NONE', #238, 1.699999999999998179 ) ;
#51 = AXIS2_PLACEMENT_3D ( 'NONE', #89, #295, #142 ) ;
#52 = FACE_OUTER_BOUND ( 'NONE', #31, .T. ) ;
#53 = EDGE_CURVE ( 'NONE', #156, #275, #314, .T. ) ;
#54 = ORIENTED_EDGE ( 'NONE', *, *, #319, .T. ) ;
#55 = ORIENTED_EDGE ( 'NONE', *, *, #139, .F. ) ;
#56 = ORIENTED_EDGE ( 'NONE', *, *, #230, .F. ) ;
#57 = FACE_OUTER_BOUND ( 'NONE', #1, .T. ) ;
#58 = AXIS2_PLACEMENT_3D ( 'NONE', #288, #316, #255 ) ;
#59 = COORDINATED_UNIVERSAL_TIME_OFFSET ( 1, 0, .AHEAD. ) ;
#60 = APPLICATION_CONTEXT ( 'configuration controlled 3d designs of mechanical parts and assemblies' ) ;
#61 = DIRECTION ( 'NONE',  ( 0.0000000000000000000, 1.000000000000000000, 0.0000000000000000000 ) ) ;
#62 = CC_DESIGN_PERSON_AND_ORGANIZATION_ASSIGNMENT ( #272, #14, ( #311 ) ) ;
#63 = CIRCLE ( 'NONE', #58, 1.699999999999993516 ) ;
#64 = APPROVAL_ROLE ( '' ) ;
#65 = DIRECTION ( 'NONE',  ( -3.491481338843133355E-15, 1.224646799147353454E-16, -1.000000000000000000 ) ) ;
#66 = DATE_TIME_ROLE ( 'creation_date' ) ;
#67 = DIRECTION ( 'NONE',  ( 0.0000000000000000000, 1.000000000000000000, 0.0000000000000000000 ) ) ;
#68 = DIRECTION ( 'NONE',  ( 4.275831445896959482E-31, 1.000000000000000000, 1.224646799147353454E-16 ) ) ;
#69 = ADVANCED_BREP_SHAPE_REPRESENTATION ( '42200', ( #268, #279, #323 ), #284 ) ;
#70 = FACE_OUTER_BOUND ( 'NONE', #233, .T. ) ;
#71 = AXIS2_PLACEMENT_3D ( 'NONE', #200, #65, #273 ) ;
#72 = CARTESIAN_POINT ( 'NONE',  ( 1.817162337037320826E-13, -1.300000000000004485, 52.00000000000000000 ) ) ;
#73 = FACE_OUTER_BOUND ( 'NONE', #226, .T. ) ;
#74 = CARTESIAN_POINT ( 'NONE',  ( 5.237222008264700033E-14, 1.274795815262572124E-32, 15.00000000000000000 ) ) ;
#75 =( LENGTH_UNIT ( ) NAMED_UNIT ( * ) SI_UNIT ( .MILLI., .METRE. ) );
#76 = LOCAL_TIME ( 9, 22, 23.00000000000000000, #250 ) ;
#77 = COORDINATED_UNIVERSAL_TIME_OFFSET ( 1, 0, .AHEAD. ) ;
#78 = FACE_OUTER_BOUND ( 'NONE', #26, .T. ) ;
#79 = ORIENTED_EDGE ( 'NONE', *, *, #134, .F. ) ;
#80 = DATE_AND_TIME ( #87, #146 ) ;
#81 = ORIENTED_EDGE ( 'NONE', *, *, #163, .T. ) ;
#82 = PERSON_AND_ORGANIZATION ( #331, #269 ) ;
#83 = ORIENTED_EDGE ( 'NONE', *, *, #294, .T. ) ;
#84 = VERTEX_POINT ( 'NONE', #164 ) ;
#85 = AXIS2_PLACEMENT_3D ( 'NONE', #194, #118, #34 ) ;
#86 = PERSON_AND_ORGANIZATION_ROLE ( 'design_supplier' ) ;
#87 = CALENDAR_DATE ( 2021, 3, 9 ) ;
#88 = VERTEX_POINT ( 'NONE', #17 ) ;
#89 = CARTESIAN_POINT ( 'NONE',  ( 0.0000000000000000000, 0.0000000000000000000, 0.0000000000000000000 ) ) ;
#90 = DIRECTION ( 'NONE',  ( -3.491481338843133355E-15, 1.224646799147353454E-16, -1.000000000000000000 ) ) ;
#91 = CC_DESIGN_PERSON_AND_ORGANIZATION_ASSIGNMENT ( #112, #113, ( #266 ) ) ;
#92 = APPROVAL ( #121, 'UNSPECIFIED' ) ;
#93 = FACE_OUTER_BOUND ( 'NONE', #20, .T. ) ;
#94 = APPROVAL_ROLE ( '' ) ;
#95 = PERSON_AND_ORGANIZATION_ROLE ( 'design_owner' ) ;
#96 = AXIS2_PLACEMENT_3D ( 'NONE', #221, #173, #61 ) ;
#97 = CONICAL_SURFACE ( 'NONE', #8, 1.699999999999992184, 1.029744258676649649 ) ;
#98 = DATE_AND_TIME ( #148, #161 ) ;
#99 = CARTESIAN_POINT ( 'NONE',  ( 0.0000000000000000000, 0.0000000000000000000, 0.0000000000000000000 ) ) ;
#100 = ORIENTED_EDGE ( 'NONE', *, *, #129, .T. ) ;
#101 = PERSON_AND_ORGANIZATION ( #331, #269 ) ;
#102 = DIRECTION ( 'NONE',  ( 4.531599869146458424E-31, 1.000000000000000000, 1.275531967630011162E-16 ) ) ;
#103 = EDGE_CURVE ( 'NONE', #231, #23, #104, .T. ) ;
#104 = LINE ( 'NONE', #205, #280 ) ;
#105 = ORIENTED_EDGE ( 'NONE', *, *, #38, .F. ) ;
#106 = ORIENTED_EDGE ( 'NONE', *, *, #215, .F. ) ;
#107 = ADVANCED_FACE ( 'NONE', ( #57 ), #29, .T. ) ;
#108 = DATE_TIME_ROLE ( 'classification_date' ) ;
#109 = CARTESIAN_POINT ( 'NONE',  ( 3.566419185586805452E-15, -1.250931457503866335E-16, 1.021463052346859079 ) ) ;
#110 = VECTOR ( 'NONE', #282, 1000.000000000000000 ) ;
#111 = CARTESIAN_POINT ( 'NONE',  ( 2.081899558550484502E-16, -1.699999999999992850, -2.081899558550499047E-16 ) ) ;
#112 = PERSON_AND_ORGANIZATION ( #331, #269 ) ;
#113 = PERSON_AND_ORGANIZATION_ROLE ( 'creator' ) ;
#114 = LINE ( 'NONE', #155, #110 ) ;
#115 = CC_DESIGN_DATE_AND_TIME_ASSIGNMENT ( #98, #66, ( #311 ) ) ;
#116 = CARTESIAN_POINT ( 'NONE',  ( 5.237222008264700033E-14, -1.836970198721029983E-15, 15.00000000000000000 ) ) ;
#117 = AXIS2_PLACEMENT_3D ( 'NONE', #40, #248, #223 ) ;
#118 = DIRECTION ( 'NONE',  ( -3.491481338843133355E-15, 1.224646799147353454E-16, -1.000000000000000000 ) ) ;
#119 = DIRECTION ( 'NONE',  ( 0.0000000000000000000, 1.000000000000000000, 0.0000000000000000000 ) ) ;
#120 = APPLICATION_CONTEXT ( 'configuration controlled 3d designs of mechanical parts and assemblies' ) ;
#121 = APPROVAL_STATUS ( 'not_yet_approved' ) ;
#122 = SHAPE_DEFINITION_REPRESENTATION ( #207, #69 ) ;
#123 = APPROVAL_DATE_TIME ( #172, #278 ) ;
#124 = CIRCLE ( 'NONE', #96, 1.699999999999993516 ) ;
#125 = APPROVAL_PERSON_ORGANIZATION ( #175, #328, #212 ) ;
#126 = ORIENTED_EDGE ( 'NONE', *, *, #198, .T. ) ;
#127 = DIRECTION ( 'NONE',  ( 0.0000000000000000000, 1.000000000000000000, 0.0000000000000000000 ) ) ;
#128 = ORIENTED_EDGE ( 'NONE', *, *, #53, .T. ) ;
#129 = EDGE_CURVE ( 'NONE', #156, #231, #141, .T. ) ;
#130 = CIRCLE ( 'NONE', #11, 1.699999999999992184 ) ;
#131 = LINE ( 'NONE', #157, #150 ) ;
#132 = ORIENTED_EDGE ( 'NONE', *, *, #193, .T. ) ;
#133 = CONICAL_SURFACE ( 'NONE', #264, 1.299999999999998268, 0.7853981633974599363 ) ;
#134 = EDGE_CURVE ( 'NONE', #135, #252, #145, .T. ) ;
#135 = VERTEX_POINT ( 'NONE', #185 ) ;
#136 = CALENDAR_DATE ( 2021, 3, 9 ) ;
#137 = ORIENTED_EDGE ( 'NONE', *, *, #163, .F. ) ;
#138 = DIRECTION ( 'NONE',  ( -3.491481338843133355E-15, 1.224646799147353454E-16, -1.000000000000000000 ) ) ;
#139 = EDGE_CURVE ( 'NONE', #84, #289, #63, .T. ) ;
#140 = FACE_OUTER_BOUND ( 'NONE', #271, .T. ) ;
#141 = CIRCLE ( 'NONE', #85, 1.299999999999998268 ) ;
#142 = DIRECTION ( 'NONE',  ( 4.275831445896959482E-31, 1.000000000000000000, 1.224646799147353454E-16 ) ) ;
#143 = DIRECTION ( 'NONE',  ( -4.275831445896959482E-31, -1.000000000000000000, -1.224646799147353454E-16 ) ) ;
#144 = DIRECTION ( 'NONE',  ( 4.275831445896959482E-31, 1.000000000000000000, 1.224646799147353207E-16 ) ) ;
#145 = LINE ( 'NONE', #196, #15 ) ;
#146 = LOCAL_TIME ( 9, 22, 23.00000000000000000, #59 ) ;
#147 = ORIENTED_EDGE ( 'NONE', *, *, #193, .F. ) ;
#148 = CALENDAR_DATE ( 2021, 3, 9 ) ;
#149 = ADVANCED_FACE ( 'NONE', ( #52 ), #190, .F. ) ;
#150 = VECTOR ( 'NONE', #310, 1000.000000000000000 ) ;
#151 = EDGE_LOOP ( 'NONE', ( #106, #176, #81, #315 ) ) ;
#152 = EDGE_CURVE ( 'NONE', #88, #236, #214, .T. ) ;
#153 = CARTESIAN_POINT ( 'NONE',  ( 1.815570296198429345E-13, -6.368163355566237959E-15, 52.00000000000000000 ) ) ;
#154 = CLOSED_SHELL ( 'NONE', ( #258, #251, #209, #158, #290, #149 ) ) ;
#155 = CARTESIAN_POINT ( 'NONE',  ( 3.566419185586804664E-15, -1.699999999999992406, 1.021463052346858857 ) ) ;
#156 = VERTEX_POINT ( 'NONE', #10 ) ;
#157 = CARTESIAN_POINT ( 'NONE',  ( 2.081899558550488200E-16, -1.699999999999995737, -2.081899558550502745E-16 ) ) ;
#158 = ADVANCED_FACE ( 'NONE', ( #242 ), #298, .T. ) ;
#159 = SECURITY_CLASSIFICATION_LEVEL ( 'unclassified' ) ;
#160 = CYLINDRICAL_SURFACE ( 'NONE', #256, 1.699999999999992850 ) ;
#161 = LOCAL_TIME ( 9, 22, 23.00000000000000000, #39 ) ;
#162 = PLANE ( 'NONE',  #192 ) ;
#163 = EDGE_CURVE ( 'NONE', #23, #84, #178, .T. ) ;
#164 = CARTESIAN_POINT ( 'NONE',  ( 5.237222008264700033E-14, 1.699999999999991962, 15.00000000000000000 ) ) ;
#165 = DATE_AND_TIME ( #243, #228 ) ;
#166 = CARTESIAN_POINT ( 'NONE',  ( 1.815570296198429345E-13, -6.368163355566237959E-15, 52.00000000000000000 ) ) ;
#167 = ADVANCED_FACE ( 'NONE', ( #73 ), #229, .T. ) ;
#168 = CARTESIAN_POINT ( 'NONE',  ( 1.801604370843057064E-13, 1.699999999999991962, 51.60000000000000853 ) ) ;
#169 = AXIS2_PLACEMENT_3D ( 'NONE', #166, #33, #222 ) ;
#170 = CC_DESIGN_SECURITY_CLASSIFICATION ( #308, ( #266 ) ) ;
#171 = APPROVAL_DATE_TIME ( #165, #92 ) ;
#172 = DATE_AND_TIME ( #16, #76 ) ;
#173 = DIRECTION ( 'NONE',  ( -3.491481338843133355E-15, 1.224646799147353454E-16, -1.000000000000000000 ) ) ;
#174 = ADVANCED_FACE ( 'NONE', ( #332 ), #249, .T. ) ;
#175 = PERSON_AND_ORGANIZATION ( #331, #269 ) ;
#176 = ORIENTED_EDGE ( 'NONE', *, *, #38, .T. ) ;
#177 = DIRECTION ( 'NONE',  ( 3.491481338843133355E-15, -1.224646799147353454E-16, 1.000000000000000000 ) ) ;
#178 = LINE ( 'NONE', #208, #30 ) ;
#179 = ORIENTED_EDGE ( 'NONE', *, *, #129, .F. ) ;
#180 = APPROVAL_PERSON_ORGANIZATION ( #101, #278, #64 ) ;
#181 = CARTESIAN_POINT ( 'NONE',  ( 1.815570296198429345E-13, -6.368163355566237959E-15, 52.00000000000000000 ) ) ;
#182 = AXIS2_PLACEMENT_3D ( 'NONE', #116, #90, #32 ) ;
#183 =( NAMED_UNIT ( * ) PLANE_ANGLE_UNIT ( ) SI_UNIT ( $, .RADIAN. ) );
#184 = ORIENTED_EDGE ( 'NONE', *, *, #3, .F. ) ;
#185 = CARTESIAN_POINT ( 'NONE',  ( 0.0000000000000000000, 0.0000000000000000000, 0.0000000000000000000 ) ) ;
#186 = EDGE_LOOP ( 'NONE', ( #5, #100, #22, #105 ) ) ;
#187 = CIRCLE ( 'NONE', #199, 1.299999999999998268 ) ;
#188 = EDGE_CURVE ( 'NONE', #45, #252, #130, .T. ) ;
#189 = DIRECTION ( 'NONE',  ( -2.382254525458686704E-15, -0.7071067811865555663, -0.7071067811865393571 ) ) ;
#190 = PLANE ( 'NONE',  #327 ) ;
#191 = ORIENTED_EDGE ( 'NONE', *, *, #198, .F. ) ;
#192 = AXIS2_PLACEMENT_3D ( 'NONE', #74, #232, #237 ) ;
#193 = EDGE_CURVE ( 'NONE', #236, #252, #241, .T. ) ;
#194 = CARTESIAN_POINT ( 'NONE',  ( 1.815570296198429345E-13, -6.368163355566237959E-15, 52.00000000000000000 ) ) ;
#195 = UNCERTAINTY_MEASURE_WITH_UNIT (LENGTH_MEASURE( 1.000000000000000082E-05 ), #75, 'distance_accuracy_value', 'NONE');
#196 = CARTESIAN_POINT ( 'NONE',  ( 3.774609141441854889E-15, 1.699999999999991962, 1.021463052346859302 ) ) ;
#197 = APPROVAL_STATUS ( 'not_yet_approved' ) ;
#198 = EDGE_CURVE ( 'NONE', #88, #45, #276, .T. ) ;
#199 = AXIS2_PLACEMENT_3D ( 'NONE', #181, #281, #127 ) ;
#200 = CARTESIAN_POINT ( 'NONE',  ( 5.237222008264700033E-14, -1.836970198721029983E-15, 15.00000000000000000 ) ) ;
#201 = ORIENTED_EDGE ( 'NONE', *, *, #24, .T. ) ;
#202 = CARTESIAN_POINT ( 'NONE',  ( 3.566419185586805452E-15, -1.250931457503866335E-16, 1.021463052346859079 ) ) ;
#203 = ORIENTED_EDGE ( 'NONE', *, *, #7, .F. ) ;
#204 = VECTOR ( 'NONE', #138, 1000.000000000000000 ) ;
#205 = CARTESIAN_POINT ( 'NONE',  ( 1.815570296198429345E-13, 1.299999999999991829, 52.00000000000000000 ) ) ;
#206 = DIRECTION ( 'NONE',  ( -3.491481338843133355E-15, 1.224646799147353454E-16, -1.000000000000000000 ) ) ;
#207 = PRODUCT_DEFINITION_SHAPE ( 'NONE', 'NONE',  #311 ) ;
#208 = CARTESIAN_POINT ( 'NONE',  ( 7.268913458024813341E-31, 1.699999999999995737, 2.081899558550495842E-16 ) ) ;
#209 = ADVANCED_FACE ( 'NONE', ( #70 ), #162, .F. ) ;
#210 = AXIS2_PLACEMENT_3D ( 'NONE', #43, #224, #102 ) ;
#211 = DIRECTION ( 'NONE',  ( -3.491481338843133355E-15, 1.224646799147353454E-16, -1.000000000000000000 ) ) ;
#212 = APPROVAL_ROLE ( '' ) ;
#213 = PERSON_AND_ORGANIZATION ( #331, #269 ) ;
#214 = CIRCLE ( 'NONE', #182, 1.699999999999993516 ) ;
#215 = EDGE_CURVE ( 'NONE', #275, #289, #131, .T. ) ;
#216 = CARTESIAN_POINT ( 'NONE',  ( 5.237222008264700033E-14, 1.274795815262572124E-32, 15.00000000000000000 ) ) ;
#217 = CIRCLE ( 'NONE', #71, 1.699999999999993516 ) ;
#218 = VECTOR ( 'NONE', #206, 1000.000000000000000 ) ;
#219 = ORIENTED_EDGE ( 'NONE', *, *, #294, .F. ) ;
#220 = PRODUCT_RELATED_PRODUCT_CATEGORY ( 'detail', '', ( #261 ) ) ;
#221 = CARTESIAN_POINT ( 'NONE',  ( 5.237222008264700033E-14, -1.836970198721029983E-15, 15.00000000000000000 ) ) ;
#222 = DIRECTION ( 'NONE',  ( 0.0000000000000000000, 1.000000000000000000, 0.0000000000000000000 ) ) ;
#223 = DIRECTION ( 'NONE',  ( 0.0000000000000000000, 1.000000000000000000, 0.0000000000000000000 ) ) ;
#224 = DIRECTION ( 'NONE',  ( -3.491481338843133355E-15, 1.224646799147353454E-16, -1.000000000000000000 ) ) ;
#225 = DIRECTION ( 'NONE',  ( -4.531599869146458424E-31, -1.000000000000000000, -1.275531967630011162E-16 ) ) ;
#226 = EDGE_LOOP ( 'NONE', ( #336, #126, #219, #147 ) ) ;
#227 = CC_DESIGN_DATE_AND_TIME_ASSIGNMENT ( #80, #108, ( #308 ) ) ;
#228 = LOCAL_TIME ( 9, 22, 23.00000000000000000, #299 ) ;
#229 = CYLINDRICAL_SURFACE ( 'NONE', #296, 1.699999999999992850 ) ;
#230 = EDGE_CURVE ( 'NONE', #135, #45, #114, .T. ) ;
#231 = VERTEX_POINT ( 'NONE', #259 ) ;
#232 = DIRECTION ( 'NONE',  ( 3.491481338843133355E-15, -1.224646799147353454E-16, 1.000000000000000000 ) ) ;
#233 = EDGE_LOOP ( 'NONE', ( #27, #201 ) ) ;
#234 = CONICAL_SURFACE ( 'NONE', #169, 1.299999999999998268, 0.7853981633974599363 ) ;
#235 = CARTESIAN_POINT ( 'NONE',  ( 0.0000000000000000000, 0.0000000000000000000, 0.0000000000000000000 ) ) ;
#236 = VERTEX_POINT ( 'NONE', #4 ) ;
#237 = DIRECTION ( 'NONE',  ( -4.275831445896959482E-31, -1.000000000000000000, -1.224646799147353454E-16 ) ) ;
#238 = AXIS2_PLACEMENT_3D ( 'NONE', #36, #326, #119 ) ;
#239 = CARTESIAN_POINT ( 'NONE',  ( 1.815570296198429345E-13, 9.748438587301971817E-33, 52.00000000000000000 ) ) ;
#240 = DIRECTION ( 'NONE',  ( 3.491481338843133355E-15, -1.224646799147353454E-16, 1.000000000000000000 ) ) ;
#241 = LINE ( 'NONE', #297, #204 ) ;
#242 = FACE_OUTER_BOUND ( 'NONE', #151, .T. ) ;
#243 = CALENDAR_DATE ( 2021, 3, 9 ) ;
#244 = DIRECTION ( 'NONE',  ( -3.491481338843133355E-15, 1.224646799147353454E-16, -1.000000000000000000 ) ) ;
#245 = ADVANCED_FACE ( 'NONE', ( #78 ), #160, .T. ) ;
#246 = PERSON_AND_ORGANIZATION ( #331, #269 ) ;
#247 = PERSON_AND_ORGANIZATION ( #331, #269 ) ;
#248 = DIRECTION ( 'NONE',  ( -3.491481338843133355E-15, 1.224646799147353454E-16, -1.000000000000000000 ) ) ;
#249 = CONICAL_SURFACE ( 'NONE', #47, 1.699999999999992184, 1.029744258676649649 ) ;
#250 = COORDINATED_UNIVERSAL_TIME_OFFSET ( 1, 0, .AHEAD. ) ;
#251 = ADVANCED_FACE ( 'NONE', ( #140 ), #321, .T. ) ;
#252 = VERTEX_POINT ( 'NONE', #324 ) ;
#253 = CARTESIAN_POINT ( 'NONE',  ( 3.566419185586805452E-15, -1.250931457503866335E-16, 1.021463052346859079 ) ) ;
#254 = ORIENTED_EDGE ( 'NONE', *, *, #152, .T. ) ;
#255 = DIRECTION ( 'NONE',  ( 0.0000000000000000000, 1.000000000000000000, 0.0000000000000000000 ) ) ;
#256 = AXIS2_PLACEMENT_3D ( 'NONE', #260, #244, #28 ) ;
#257 = DIRECTION ( 'NONE',  ( -3.491481338843133355E-15, 1.224646799147353454E-16, -1.000000000000000000 ) ) ;
#258 = ADVANCED_FACE ( 'NONE', ( #93 ), #234, .T. ) ;
#259 = CARTESIAN_POINT ( 'NONE',  ( 1.815570296198429345E-13, 1.299999999999991829, 52.00000000000000000 ) ) ;
#260 = CARTESIAN_POINT ( 'NONE',  ( 0.0000000000000000000, 0.0000000000000000000, 0.0000000000000000000 ) ) ;
#261 = PRODUCT ( '42200', '42200', '', ( #46 ) ) ;
#262 = DIRECTION ( 'NONE',  ( 4.531599869146458424E-31, 1.000000000000000000, 1.275531967630011162E-16 ) ) ;
#263 = CIRCLE ( 'NONE', #117, 1.699999999999998179 ) ;
#264 = AXIS2_PLACEMENT_3D ( 'NONE', #153, #41, #67 ) ;
#265 = DATE_AND_TIME ( #136, #35 ) ;
#266 = PRODUCT_DEFINITION_FORMATION_WITH_SPECIFIED_SOURCE ( 'ANY', '', #261, .NOT_KNOWN. ) ;
#267 = ORIENTED_EDGE ( 'NONE', *, *, #3, .T. ) ;
#268 = MANIFOLD_SOLID_BREP ( 'Corps-Déplacer/Copier1[1]', #154 ) ;
#269 = ORGANIZATION ( 'UNSPECIFIED', 'UNSPECIFIED', '' ) ;
#270 = DIRECTION ( 'NONE',  ( 1.903218546456022717E-15, 0.8571673007021097801, 0.5150380749100585964 ) ) ;
#271 = EDGE_LOOP ( 'NONE', ( #267, #277, #55, #137 ) ) ;
#272 = PERSON_AND_ORGANIZATION ( #331, #269 ) ;
#273 = DIRECTION ( 'NONE',  ( 0.0000000000000000000, 1.000000000000000000, 0.0000000000000000000 ) ) ;
#274 = CARTESIAN_POINT ( 'NONE',  ( 1.164745185393312150E-13, -1.700000000000004619, 51.60000000000000853 ) ) ;
#275 = VERTEX_POINT ( 'NONE', #274 ) ;
#276 = LINE ( 'NONE', #111, #218 ) ;
#277 = ORIENTED_EDGE ( 'NONE', *, *, #215, .T. ) ;
#278 = APPROVAL ( #197, 'UNSPECIFIED' ) ;
#279 = MANIFOLD_SOLID_BREP ( 'Corps-Déplacer/Copier1[2]', #283 ) ;
#280 = VECTOR ( 'NONE', #305, 1000.000000000000000 ) ;
#281 = DIRECTION ( 'NONE',  ( -3.491481338843133355E-15, 1.224646799147353454E-16, -1.000000000000000000 ) ) ;
#282 = DIRECTION ( 'NONE',  ( 1.798245827342160317E-15, -0.8571673007021098911, 0.5150380749100582634 ) ) ;
#283 = CLOSED_SHELL ( 'NONE', ( #167, #306, #174, #245, #107 ) ) ;
#284 =( GEOMETRIC_REPRESENTATION_CONTEXT ( 3 ) GLOBAL_UNCERTAINTY_ASSIGNED_CONTEXT ( ( #195 ) ) GLOBAL_UNIT_ASSIGNED_CONTEXT ( ( #75, #183, #337 ) ) REPRESENTATION_CONTEXT ( 'NONE', 'WORKASPACE' ) );
#285 = ORIENTED_EDGE ( 'NONE', *, *, #134, .T. ) ;
#286 = DIRECTION ( 'NONE',  ( -3.491481338843133355E-15, 1.224646799147353454E-16, -1.000000000000000000 ) ) ;
#287 = APPLICATION_PROTOCOL_DEFINITION ( 'international standard', 'config_control_design', 1994, #60 ) ;
#288 = CARTESIAN_POINT ( 'NONE',  ( 5.237222008264700033E-14, -1.836970198721029983E-15, 15.00000000000000000 ) ) ;
#289 = VERTEX_POINT ( 'NONE', #301 ) ;
#290 = ADVANCED_FACE ( 'NONE', ( #307 ), #133, .T. ) ;
#291 = EDGE_LOOP ( 'NONE', ( #56, #285, #83 ) ) ;
#292 = CC_DESIGN_APPROVAL ( #328, ( #266 ) ) ;
#293 = PERSON_AND_ORGANIZATION_ROLE ( 'classification_officer' ) ;
#294 = EDGE_CURVE ( 'NONE', #252, #45, #300, .T. ) ;
#295 = DIRECTION ( 'NONE',  ( -3.491481338843133355E-15, 1.224646799147353454E-16, -1.000000000000000000 ) ) ;
#296 = AXIS2_PLACEMENT_3D ( 'NONE', #235, #257, #144 ) ;
#297 = CARTESIAN_POINT ( 'NONE',  ( 7.268913458024800204E-31, 1.699999999999992850, 2.081899558550491898E-16 ) ) ;
#298 = CYLINDRICAL_SURFACE ( 'NONE', #6, 1.699999999999995737 ) ;
#299 = COORDINATED_UNIVERSAL_TIME_OFFSET ( 1, 0, .AHEAD. ) ;
#300 = CIRCLE ( 'NONE', #210, 1.699999999999992184 ) ;
#301 = CARTESIAN_POINT ( 'NONE',  ( 1.164745185393313665E-13, -1.699999999999995293, 15.00000000000000000 ) ) ;
#302 = CC_DESIGN_PERSON_AND_ORGANIZATION_ASSIGNMENT ( #213, #293, ( #308 ) ) ;
#303 = APPLICATION_PROTOCOL_DEFINITION ( 'international standard', 'config_control_design', 1994, #120 ) ;
#304 = CC_DESIGN_APPROVAL ( #278, ( #311 ) ) ;
#305 = DIRECTION ( 'NONE',  ( -2.468850131082236550E-15, 0.7071067811865558994, -0.7071067811865392461 ) ) ;
#306 = ADVANCED_FACE ( 'NONE', ( #49 ), #97, .T. ) ;
#307 = FACE_OUTER_BOUND ( 'NONE', #186, .T. ) ;
#308 = SECURITY_CLASSIFICATION ( '', '', #159 ) ;
#309 = EDGE_LOOP ( 'NONE', ( #79, #313, #334 ) ) ;
#310 = DIRECTION ( 'NONE',  ( -3.491481338843133355E-15, 1.224646799147353454E-16, -1.000000000000000000 ) ) ;
#311 = PRODUCT_DEFINITION ( 'UNKNOWN', '', #266, #18 ) ;
#312 = APPROVAL_DATE_TIME ( #265, #328 ) ;
#313 = ORIENTED_EDGE ( 'NONE', *, *, #230, .T. ) ;
#314 = LINE ( 'NONE', #72, #317 ) ;
#315 = ORIENTED_EDGE ( 'NONE', *, *, #24, .F. ) ;
#316 = DIRECTION ( 'NONE',  ( -3.491481338843133355E-15, 1.224646799147353454E-16, -1.000000000000000000 ) ) ;
#317 = VECTOR ( 'NONE', #189, 1000.000000000000114 ) ;
#318 = CC_DESIGN_APPROVAL ( #92, ( #308 ) ) ;
#319 = EDGE_CURVE ( 'NONE', #231, #156, #187, .T. ) ;
#320 = DIRECTION ( 'NONE',  ( -4.531599869146458424E-31, -1.000000000000000000, -1.275531967630011162E-16 ) ) ;
#321 = CYLINDRICAL_SURFACE ( 'NONE', #51, 1.699999999999995737 ) ;
#322 = ORIENTED_EDGE ( 'NONE', *, *, #188, .F. ) ;
#323 = AXIS2_PLACEMENT_3D ( 'NONE', #329, #42, #325 ) ;
#324 = CARTESIAN_POINT ( 'NONE',  ( 3.774609141441854889E-15, 1.699999999999991962, 1.021463052346859302 ) ) ;
#325 = DIRECTION ( 'NONE',  ( 1.000000000000000000, 0.0000000000000000000, 0.0000000000000000000 ) ) ;
#326 = DIRECTION ( 'NONE',  ( -3.491481338843133355E-15, 1.224646799147353454E-16, -1.000000000000000000 ) ) ;
#327 = AXIS2_PLACEMENT_3D ( 'NONE', #239, #12, #9 ) ;
#328 = APPROVAL ( #48, 'UNSPECIFIED' ) ;
#329 = CARTESIAN_POINT ( 'NONE',  ( 0.0000000000000000000, 0.0000000000000000000, 0.0000000000000000000 ) ) ;
#330 = CARTESIAN_POINT ( 'NONE',  ( 3.566419185586804664E-15, -1.699999999999992406, 1.021463052346858857 ) ) ;
#331 = PERSON ( 'UNSPECIFIED', 'UNSPECIFIED', 'UNSPECIFIED', ('UNSPECIFIED'), ('UNSPECIFIED'), ('UNSPECIFIED') ) ;
#332 = FACE_OUTER_BOUND ( 'NONE', #309, .T. ) ;
#333 = ORIENTED_EDGE ( 'NONE', *, *, #319, .F. ) ;
#334 = ORIENTED_EDGE ( 'NONE', *, *, #188, .T. ) ;
#335 = APPROVAL_PERSON_ORGANIZATION ( #246, #92, #94 ) ;
#336 = ORIENTED_EDGE ( 'NONE', *, *, #7, .T. ) ;
#337 =( NAMED_UNIT ( * ) SI_UNIT ( $, .STERADIAN. ) SOLID_ANGLE_UNIT ( ) );
ENDSEC;
END-ISO-10303-21;
