ISO-10303-21;
HEADER;
FILE_DESCRIPTION (( 'STEP AP203' ),
    '1' );
FILE_NAME ('42174.step',
    '2021-10-07T13:48:01',
    ( '' ),
    ( '' ),
    'SwSTEP 2.0',
    'SolidWorks 2019',
    '' );
FILE_SCHEMA (( 'CONFIG_CONTROL_DESIGN' ));
ENDSEC;

DATA;
#1 = CC_DESIGN_PERSON_AND_ORGANIZATION_ASSIGNMENT ( #51, #206, ( #165 ) ) ;
#2 = ORIENTED_EDGE ( 'NONE', *, *, #141, .F. ) ;
#3 = AXIS2_PLACEMENT_3D ( 'NONE', #80, #143, #162 ) ;
#4 = CONICAL_SURFACE ( 'NONE', #21, 0.8000000000000010436, 0.7853981633974510546 ) ;
#5 = VERTEX_POINT ( 'NONE', #195 ) ;
#6 = CC_DESIGN_APPROVAL ( #176, ( #165 ) ) ;
#7 = DIRECTION ( 'NONE',  ( 0.0000000000000000000, 1.000000000000000000, 0.0000000000000000000 ) ) ;
#8 = FACE_BOUND ( 'NONE', #193, .T. ) ;
#9 = CARTESIAN_POINT ( 'NONE',  ( 1.319779946082704535E-13, 0.9999999999999963363, 37.79999999999999716 ) ) ;
#10 = CARTESIAN_POINT ( 'NONE',  ( 1.326762908760390423E-13, -4.653657836759941941E-15, 38.00000000000000000 ) ) ;
#11 = CALENDAR_DATE ( 2021, 7, 10 ) ;
#12 = AXIS2_PLACEMENT_3D ( 'NONE', #29, #125, #24 ) ;
#13 = COORDINATED_UNIVERSAL_TIME_OFFSET ( 1, 0, .AHEAD. ) ;
#14 = CLOSED_SHELL ( 'NONE', ( #73, #100, #79, #109, #63 ) ) ;
#15 = CC_DESIGN_APPROVAL ( #88, ( #20 ) ) ;
#16 = ORIENTED_EDGE ( 'NONE', *, *, #40, .F. ) ;
#17 = DATE_AND_TIME ( #136, #78 ) ;
#18 = ORIENTED_EDGE ( 'NONE', *, *, #145, .F. ) ;
#19 = ORIENTED_EDGE ( 'NONE', *, *, #145, .T. ) ;
#20 = SECURITY_CLASSIFICATION ( '', '', #81 ) ;
#21 = AXIS2_PLACEMENT_3D ( 'NONE', #10, #44, #48 ) ;
#22 = EDGE_LOOP ( 'NONE', ( #39 ) ) ;
#23 = DIRECTION ( 'NONE',  ( 3.491481338843133355E-15, -1.224646799147353207E-16, 1.000000000000000000 ) ) ;
#24 = DIRECTION ( 'NONE',  ( -4.275831445896958607E-31, -1.000000000000000000, -1.224646799147353207E-16 ) ) ;
#25 = AXIS2_PLACEMENT_3D ( 'NONE', #200, #139, #166 ) ;
#26 = CC_DESIGN_DATE_AND_TIME_ASSIGNMENT ( #131, #49, ( #20 ) ) ;
#27 = FACE_OUTER_BOUND ( 'NONE', #156, .T. ) ;
#28 = PLANE ( 'NONE',  #197 ) ;
#29 = CARTESIAN_POINT ( 'NONE',  ( 4.189777606611760026E-14, 6.636437038278665724E-33, 12.00000000000000000 ) ) ;
#30 = COORDINATED_UNIVERSAL_TIME_OFFSET ( 1, 0, .AHEAD. ) ;
#31 = APPLICATION_PROTOCOL_DEFINITION ( 'international standard', 'config_control_design', 1994, #54 ) ;
#32 = DIRECTION ( 'NONE',  ( 1.000000000000000000, 0.0000000000000000000, 0.0000000000000000000 ) ) ;
#33 = CONICAL_SURFACE ( 'NONE', #155, 0.8849999999999936806, 1.029744258676649871 ) ;
#34 = PERSON_AND_ORGANIZATION ( #133, #57 ) ;
#35 = PERSON_AND_ORGANIZATION ( #133, #57 ) ;
#36 = DIRECTION ( 'NONE',  ( -3.491481338843133355E-15, 1.224646799147353207E-16, -1.000000000000000000 ) ) ;
#37 = PRODUCT ( '42174', '42174', '', ( #172 ) ) ;
#38 = EDGE_LOOP ( 'NONE', ( #209 ) ) ;
#39 = ORIENTED_EDGE ( 'NONE', *, *, #214, .T. ) ;
#40 = EDGE_CURVE ( 'NONE', #163, #163, #135, .T. ) ;
#41 = EDGE_LOOP ( 'NONE', ( #102 ) ) ;
#42 = CARTESIAN_POINT ( 'NONE',  ( 0.0000000000000000000, 0.0000000000000000000, 0.0000000000000000000 ) ) ;
#43 = CC_DESIGN_DATE_AND_TIME_ASSIGNMENT ( #85, #204, ( #159 ) ) ;
#44 = DIRECTION ( 'NONE',  ( -3.491481338843133355E-15, 1.224646799147353207E-16, -1.000000000000000000 ) ) ;
#45 = CIRCLE ( 'NONE', #72, 0.8849999999999957900 ) ;
#46 = FACE_OUTER_BOUND ( 'NONE', #154, .T. ) ;
#47 = CC_DESIGN_PERSON_AND_ORGANIZATION_ASSIGNMENT ( #34, #128, ( #159 ) ) ;
#48 = DIRECTION ( 'NONE',  ( 0.0000000000000000000, 1.000000000000000000, 0.0000000000000000000 ) ) ;
#49 = DATE_TIME_ROLE ( 'classification_date' ) ;
#50 = AXIS2_PLACEMENT_3D ( 'NONE', #142, #23, #211 ) ;
#51 = PERSON_AND_ORGANIZATION ( #133, #57 ) ;
#52 = APPROVAL_PERSON_ORGANIZATION ( #113, #88, #218 ) ;
#53 = APPROVAL_DATE_TIME ( #17, #88 ) ;
#54 = APPLICATION_CONTEXT ( 'configuration controlled 3d designs of mechanical parts and assemblies' ) ;
#55 = EDGE_LOOP ( 'NONE', ( #2 ) ) ;
#56 = EDGE_LOOP ( 'NONE', ( #19 ) ) ;
#57 = ORGANIZATION ( 'UNSPECIFIED', 'UNSPECIFIED', '' ) ;
#58 = FACE_OUTER_BOUND ( 'NONE', #56, .T. ) ;
#59 = EDGE_CURVE ( 'NONE', #158, #158, #45, .T. ) ;
#60 = FACE_OUTER_BOUND ( 'NONE', #38, .T. ) ;
#61 = DIRECTION ( 'NONE',  ( -3.491481338843133355E-15, 1.224646799147353207E-16, -1.000000000000000000 ) ) ;
#62 = DIRECTION ( 'NONE',  ( 4.275831445896958607E-31, 1.000000000000000000, 1.224646799147353207E-16 ) ) ;
#63 = ADVANCED_FACE ( 'NONE', ( #46 ), #28, .F. ) ;
#64 = FACE_OUTER_BOUND ( 'NONE', #55, .T. ) ;
#65 = COORDINATED_UNIVERSAL_TIME_OFFSET ( 1, 0, .AHEAD. ) ;
#66 = DATE_AND_TIME ( #84, #198 ) ;
#67 = APPLICATION_CONTEXT ( 'configuration controlled 3d designs of mechanical parts and assemblies' ) ;
#68 = CALENDAR_DATE ( 2021, 7, 10 ) ;
#69 = CC_DESIGN_PERSON_AND_ORGANIZATION_ASSIGNMENT ( #114, #186, ( #37 ) ) ;
#70 = PERSON_AND_ORGANIZATION_ROLE ( 'classification_officer' ) ;
#71 = DIRECTION ( 'NONE',  ( 0.0000000000000000000, 1.000000000000000000, 0.0000000000000000000 ) ) ;
#72 = AXIS2_PLACEMENT_3D ( 'NONE', #190, #36, #71 ) ;
#73 = ADVANCED_FACE ( 'NONE', ( #91 ), #123, .F. ) ;
#74 = PLANE ( 'NONE',  #12 ) ;
#75 = CARTESIAN_POINT ( 'NONE',  ( 1.319779946082704535E-13, -4.629164900776995227E-15, 37.79999999999999716 ) ) ;
#76 = DIRECTION ( 'NONE',  ( -3.491481338843133355E-15, 1.224646799147353207E-16, -1.000000000000000000 ) ) ;
#77 = CARTESIAN_POINT ( 'NONE',  ( 1.856635870143713975E-15, -6.512201999358343476E-17, 0.5317616478393927260 ) ) ;
#78 = LOCAL_TIME ( 15, 48, 1.000000000000000000, #65 ) ;
#79 = ADVANCED_FACE ( 'NONE', ( #64, #60 ), #122, .T. ) ;
#80 = CARTESIAN_POINT ( 'NONE',  ( 4.189777606611760026E-14, 6.636437038278665724E-33, 12.00000000000000000 ) ) ;
#81 = SECURITY_CLASSIFICATION_LEVEL ( 'unclassified' ) ;
#82 = APPROVAL ( #167, 'UNSPECIFIED' ) ;
#83 = AXIS2_PLACEMENT_3D ( 'NONE', #213, #93, #201 ) ;
#84 = CALENDAR_DATE ( 2021, 7, 10 ) ;
#85 = DATE_AND_TIME ( #68, #202 ) ;
#86 = CLOSED_SHELL ( 'NONE', ( #152, #194, #97 ) ) ;
#87 = AXIS2_PLACEMENT_3D ( 'NONE', #151, #150, #32 ) ;
#88 = APPROVAL ( #147, 'UNSPECIFIED' ) ;
#89 = CC_DESIGN_APPROVAL ( #82, ( #159 ) ) ;
#90 = ORIENTED_EDGE ( 'NONE', *, *, #59, .T. ) ;
#91 = FACE_OUTER_BOUND ( 'NONE', #22, .T. ) ;
#92 = FACE_OUTER_BOUND ( 'NONE', #137, .T. ) ;
#93 = DIRECTION ( 'NONE',  ( -3.491481338843133355E-15, 1.224646799147353207E-16, -1.000000000000000000 ) ) ;
#94 = CARTESIAN_POINT ( 'NONE',  ( 1.856635870143713975E-15, -6.512201999358343476E-17, 0.5317616478393927260 ) ) ;
#95 = LOCAL_TIME ( 15, 48, 1.000000000000000000, #30 ) ;
#96 = PERSON_AND_ORGANIZATION ( #133, #57 ) ;
#97 = ADVANCED_FACE ( 'NONE', ( #212 ), #74, .T. ) ;
#98 =( LENGTH_UNIT ( ) NAMED_UNIT ( * ) SI_UNIT ( .MILLI., .METRE. ) );
#99 = APPROVAL_DATE_TIME ( #66, #82 ) ;
#100 = ADVANCED_FACE ( 'NONE', ( #8, #217 ), #127, .T. ) ;
#101 =( GEOMETRIC_REPRESENTATION_CONTEXT ( 3 ) GLOBAL_UNCERTAINTY_ASSIGNED_CONTEXT ( ( #111 ) ) GLOBAL_UNIT_ASSIGNED_CONTEXT ( ( #98, #203, #219 ) ) REPRESENTATION_CONTEXT ( 'NONE', 'WORKASPACE' ) );
#102 = ORIENTED_EDGE ( 'NONE', *, *, #141, .T. ) ;
#103 = CC_DESIGN_PERSON_AND_ORGANIZATION_ASSIGNMENT ( #116, #70, ( #20 ) ) ;
#104 = EDGE_LOOP ( 'NONE', ( #192 ) ) ;
#105 = CARTESIAN_POINT ( 'NONE',  ( 1.326762908760390423E-13, -4.653657836759941941E-15, 38.00000000000000000 ) ) ;
#106 = CARTESIAN_POINT ( 'NONE',  ( 1.326762908760390423E-13, 0.7999999999999963807, 38.00000000000000000 ) ) ;
#107 = DIRECTION ( 'NONE',  ( -4.352384055112428215E-31, -1.000000000000000000, -1.225087200548601252E-16 ) ) ;
#108 = DIRECTION ( 'NONE',  ( 0.0000000000000000000, 1.000000000000000000, 0.0000000000000000000 ) ) ;
#109 = ADVANCED_FACE ( 'NONE', ( #110, #196 ), #4, .T. ) ;
#110 = FACE_OUTER_BOUND ( 'NONE', #223, .T. ) ;
#111 = UNCERTAINTY_MEASURE_WITH_UNIT (LENGTH_MEASURE( 1.000000000000000082E-05 ), #98, 'distance_accuracy_value', 'NONE');
#112 = DIRECTION ( 'NONE',  ( 4.275831445896958607E-31, 1.000000000000000000, 1.224646799147353207E-16 ) ) ;
#113 = PERSON_AND_ORGANIZATION ( #133, #57 ) ;
#114 = PERSON_AND_ORGANIZATION ( #133, #57 ) ;
#115 = APPROVAL_STATUS ( 'not_yet_approved' ) ;
#116 = PERSON_AND_ORGANIZATION ( #133, #57 ) ;
#117 = COORDINATED_UNIVERSAL_TIME_OFFSET ( 1, 0, .AHEAD. ) ;
#118 = MANIFOLD_SOLID_BREP ( 'Corps-Déplacer/Copier1[2]', #86 ) ;
#119 = DIRECTION ( 'NONE',  ( -3.491481338843133355E-15, 1.224646799147353207E-16, -1.000000000000000000 ) ) ;
#120 = CIRCLE ( 'NONE', #124, 0.9999999999999970024 ) ;
#121 = VERTEX_POINT ( 'NONE', #9 ) ;
#122 = CYLINDRICAL_SURFACE ( 'NONE', #25, 0.9999999999999988898 ) ;
#123 = PLANE ( 'NONE',  #3 ) ;
#124 = AXIS2_PLACEMENT_3D ( 'NONE', #182, #183, #108 ) ;
#125 = DIRECTION ( 'NONE',  ( 3.491481338843133355E-15, -1.224646799147353207E-16, 1.000000000000000000 ) ) ;
#126 = DIRECTION ( 'NONE',  ( 3.491481338843133355E-15, -1.224646799147353207E-16, 1.000000000000000000 ) ) ;
#127 = CONICAL_SURFACE ( 'NONE', #50, 0.9999999999999970024, 0.5235987755982931535 ) ;
#128 = PERSON_AND_ORGANIZATION_ROLE ( 'creator' ) ;
#129 = PERSON_AND_ORGANIZATION ( #133, #57 ) ;
#130 = DATE_AND_TIME ( #222, #144 ) ;
#131 = DATE_AND_TIME ( #11, #95 ) ;
#132 = EDGE_CURVE ( 'NONE', #121, #121, #177, .T. ) ;
#133 = PERSON ( 'UNSPECIFIED', 'UNSPECIFIED', 'UNSPECIFIED', ('UNSPECIFIED'), ('UNSPECIFIED'), ('UNSPECIFIED') ) ;
#134 = SHAPE_DEFINITION_REPRESENTATION ( #189, #157 ) ;
#135 = CIRCLE ( 'NONE', #138, 0.8000000000000010436 ) ;
#136 = CALENDAR_DATE ( 2021, 7, 10 ) ;
#137 = EDGE_LOOP ( 'NONE', ( #90 ) ) ;
#138 = AXIS2_PLACEMENT_3D ( 'NONE', #105, #119, #178 ) ;
#139 = DIRECTION ( 'NONE',  ( -3.491481338843133355E-15, 1.224646799147353207E-16, -1.000000000000000000 ) ) ;
#140 = VERTEX_POINT ( 'NONE', #216 ) ;
#141 = EDGE_CURVE ( 'NONE', #140, #140, #120, .T. ) ;
#142 = CARTESIAN_POINT ( 'NONE',  ( 4.259322971946143888E-14, -1.493969389467497598E-15, 12.19918584287042762 ) ) ;
#143 = DIRECTION ( 'NONE',  ( 3.491481338843133355E-15, -1.224646799147353207E-16, 1.000000000000000000 ) ) ;
#144 = LOCAL_TIME ( 15, 48, 1.000000000000000000, #13 ) ;
#145 = EDGE_CURVE ( 'NONE', #5, #5, #160, .T. ) ;
#146 = DIRECTION ( 'NONE',  ( 4.352384055112428215E-31, 1.000000000000000000, 1.225087200548601252E-16 ) ) ;
#147 = APPROVAL_STATUS ( 'not_yet_approved' ) ;
#148 = APPLICATION_PROTOCOL_DEFINITION ( 'international standard', 'config_control_design', 1994, #67 ) ;
#149 = APPROVAL_DATE_TIME ( #130, #176 ) ;
#150 = DIRECTION ( 'NONE',  ( 0.0000000000000000000, 0.0000000000000000000, 1.000000000000000000 ) ) ;
#151 = CARTESIAN_POINT ( 'NONE',  ( 0.0000000000000000000, 0.0000000000000000000, 0.0000000000000000000 ) ) ;
#152 = ADVANCED_FACE ( 'NONE', ( #58 ), #33, .T. ) ;
#153 = ORIENTED_EDGE ( 'NONE', *, *, #132, .F. ) ;
#154 = EDGE_LOOP ( 'NONE', ( #16 ) ) ;
#155 = AXIS2_PLACEMENT_3D ( 'NONE', #77, #126, #107 ) ;
#156 = EDGE_LOOP ( 'NONE', ( #18 ) ) ;
#157 = ADVANCED_BREP_SHAPE_REPRESENTATION ( '42174', ( #191, #118, #87 ), #101 ) ;
#158 = VERTEX_POINT ( 'NONE', #199 ) ;
#159 = PRODUCT_DEFINITION ( 'UNKNOWN', '', #165, #164 ) ;
#160 = CIRCLE ( 'NONE', #171, 0.8849999999999936806 ) ;
#161 = DIRECTION ( 'NONE',  ( -3.491481338843133355E-15, 1.224646799147353207E-16, -1.000000000000000000 ) ) ;
#162 = DIRECTION ( 'NONE',  ( -4.275831445896958607E-31, -1.000000000000000000, -1.224646799147353207E-16 ) ) ;
#163 = VERTEX_POINT ( 'NONE', #106 ) ;
#164 = DESIGN_CONTEXT ( 'detailed design', #67, 'design' ) ;
#165 = PRODUCT_DEFINITION_FORMATION_WITH_SPECIFIED_SOURCE ( 'ANY', '', #37, .NOT_KNOWN. ) ;
#166 = DIRECTION ( 'NONE',  ( 4.275831445896957731E-31, 1.000000000000000000, 1.224646799147353454E-16 ) ) ;
#167 = APPROVAL_STATUS ( 'not_yet_approved' ) ;
#168 = CARTESIAN_POINT ( 'NONE',  ( 4.189777606611760657E-14, 0.8849999999999943467, 12.00000000000000178 ) ) ;
#169 = CC_DESIGN_PERSON_AND_ORGANIZATION_ASSIGNMENT ( #129, #205, ( #165 ) ) ;
#170 = APPROVAL_ROLE ( '' ) ;
#171 = AXIS2_PLACEMENT_3D ( 'NONE', #94, #61, #146 ) ;
#172 = MECHANICAL_CONTEXT ( 'NONE', #54, 'mechanical' ) ;
#173 = ORIENTED_EDGE ( 'NONE', *, *, #40, .T. ) ;
#174 = AXIS2_PLACEMENT_3D ( 'NONE', #75, #179, #7 ) ;
#175 = ORIENTED_EDGE ( 'NONE', *, *, #214, .F. ) ;
#176 = APPROVAL ( #115, 'UNSPECIFIED' ) ;
#177 = CIRCLE ( 'NONE', #174, 1.000000000000000888 ) ;
#178 = DIRECTION ( 'NONE',  ( 0.0000000000000000000, 1.000000000000000000, 0.0000000000000000000 ) ) ;
#179 = DIRECTION ( 'NONE',  ( -3.491481338843133355E-15, 1.224646799147353207E-16, -1.000000000000000000 ) ) ;
#180 = CYLINDRICAL_SURFACE ( 'NONE', #181, 0.8849999999999946798 ) ;
#181 = AXIS2_PLACEMENT_3D ( 'NONE', #42, #161, #112 ) ;
#182 = CARTESIAN_POINT ( 'NONE',  ( 4.259322971946143888E-14, -1.493969389467497598E-15, 12.19918584287042762 ) ) ;
#183 = DIRECTION ( 'NONE',  ( -3.491481338843133355E-15, 1.224646799147353207E-16, -1.000000000000000000 ) ) ;
#184 = CARTESIAN_POINT ( 'NONE',  ( 1.326762908760390423E-13, 5.999039130647368167E-33, 38.00000000000000000 ) ) ;
#185 = COORDINATED_UNIVERSAL_TIME_OFFSET ( 1, 0, .AHEAD. ) ;
#186 = PERSON_AND_ORGANIZATION_ROLE ( 'design_owner' ) ;
#187 = CIRCLE ( 'NONE', #83, 0.8849999999999957900 ) ;
#188 = PRODUCT_RELATED_PRODUCT_CATEGORY ( 'detail', '', ( #37 ) ) ;
#189 = PRODUCT_DEFINITION_SHAPE ( 'NONE', 'NONE',  #159 ) ;
#190 = CARTESIAN_POINT ( 'NONE',  ( 4.189777606611760657E-14, -1.469576158976824144E-15, 12.00000000000000178 ) ) ;
#191 = MANIFOLD_SOLID_BREP ( 'Corps-Déplacer/Copier1[1]', #14 ) ;
#192 = ORIENTED_EDGE ( 'NONE', *, *, #59, .F. ) ;
#193 = EDGE_LOOP ( 'NONE', ( #175 ) ) ;
#194 = ADVANCED_FACE ( 'NONE', ( #27, #92 ), #180, .T. ) ;
#195 = CARTESIAN_POINT ( 'NONE',  ( 1.856635870143714369E-15, 0.8849999999999935696, 0.5317616478393928370 ) ) ;
#196 = FACE_BOUND ( 'NONE', #208, .T. ) ;
#197 = AXIS2_PLACEMENT_3D ( 'NONE', #184, #76, #62 ) ;
#198 = LOCAL_TIME ( 15, 48, 1.000000000000000000, #185 ) ;
#199 = CARTESIAN_POINT ( 'NONE',  ( 4.189777606611760657E-14, 0.8849999999999943467, 12.00000000000000178 ) ) ;
#200 = CARTESIAN_POINT ( 'NONE',  ( 0.0000000000000000000, 0.0000000000000000000, 0.0000000000000000000 ) ) ;
#201 = DIRECTION ( 'NONE',  ( 0.0000000000000000000, 1.000000000000000000, 0.0000000000000000000 ) ) ;
#202 = LOCAL_TIME ( 15, 48, 1.000000000000000000, #117 ) ;
#203 =( NAMED_UNIT ( * ) PLANE_ANGLE_UNIT ( ) SI_UNIT ( $, .RADIAN. ) );
#204 = DATE_TIME_ROLE ( 'creation_date' ) ;
#205 = PERSON_AND_ORGANIZATION_ROLE ( 'creator' ) ;
#206 = PERSON_AND_ORGANIZATION_ROLE ( 'design_supplier' ) ;
#207 = CC_DESIGN_SECURITY_CLASSIFICATION ( #20, ( #165 ) ) ;
#208 = EDGE_LOOP ( 'NONE', ( #173 ) ) ;
#209 = ORIENTED_EDGE ( 'NONE', *, *, #132, .T. ) ;
#210 = APPROVAL_PERSON_ORGANIZATION ( #96, #82, #221 ) ;
#211 = DIRECTION ( 'NONE',  ( 0.0000000000000000000, -1.000000000000000000, 0.0000000000000000000 ) ) ;
#212 = FACE_OUTER_BOUND ( 'NONE', #104, .T. ) ;
#213 = CARTESIAN_POINT ( 'NONE',  ( 4.189777606611760657E-14, -1.469576158976824144E-15, 12.00000000000000178 ) ) ;
#214 = EDGE_CURVE ( 'NONE', #220, #220, #187, .T. ) ;
#215 = APPROVAL_PERSON_ORGANIZATION ( #35, #176, #170 ) ;
#216 = CARTESIAN_POINT ( 'NONE',  ( 4.259322971946143888E-14, 0.9999999999999954481, 12.19918584287042762 ) ) ;
#217 = FACE_OUTER_BOUND ( 'NONE', #41, .T. ) ;
#218 = APPROVAL_ROLE ( '' ) ;
#219 =( NAMED_UNIT ( * ) SI_UNIT ( $, .STERADIAN. ) SOLID_ANGLE_UNIT ( ) );
#220 = VERTEX_POINT ( 'NONE', #168 ) ;
#221 = APPROVAL_ROLE ( '' ) ;
#222 = CALENDAR_DATE ( 2021, 7, 10 ) ;
#223 = EDGE_LOOP ( 'NONE', ( #153 ) ) ;
ENDSEC;
END-ISO-10303-21;
