ISO-10303-21;
HEADER;
FILE_DESCRIPTION (( 'STEP AP203' ),
    '1' );
FILE_NAME ('42173.step',
    '2021-09-03T07:22:22',
    ( '' ),
    ( '' ),
    'SwSTEP 2.0',
    'SolidWorks 2019',
    '' );
FILE_SCHEMA (( 'CONFIG_CONTROL_DESIGN' ));
ENDSEC;

DATA;
#1 = PLANE ( 'NONE',  #277 ) ;
#2 = ORIENTED_EDGE ( 'NONE', *, *, #119, .T. ) ;
#3 = DIRECTION ( 'NONE',  ( -3.491481338843133355E-15, 1.224646799147353207E-16, -1.000000000000000000 ) ) ;
#4 = DIRECTION ( 'NONE',  ( 4.275831445896958607E-31, 1.000000000000000000, 1.224646799147353207E-16 ) ) ;
#5 = CYLINDRICAL_SURFACE ( 'NONE', #13, 2.999999999999993339 ) ;
#6 = CLOSED_SHELL ( 'NONE', ( #282, #199, #236, #190, #23, #44 ) ) ;
#7 = CIRCLE ( 'NONE', #304, 2.999999999999993783 ) ;
#8 = ORIENTED_EDGE ( 'NONE', *, *, #47, .F. ) ;
#9 = PERSON_AND_ORGANIZATION ( #321, #161 ) ;
#10 = CARTESIAN_POINT ( 'NONE',  ( 2.304377683636468267E-13, 2.299999999999991385, 66.00000000000000000 ) ) ;
#11 = FACE_OUTER_BOUND ( 'NONE', #36, .T. ) ;
#12 = EDGE_CURVE ( 'NONE', #193, #83, #140, .T. ) ;
#13 = AXIS2_PLACEMENT_3D ( 'NONE', #129, #66, #181 ) ;
#14 = FACE_OUTER_BOUND ( 'NONE', #203, .T. ) ;
#15 = ORIENTED_EDGE ( 'NONE', *, *, #142, .T. ) ;
#16 = DIRECTION ( 'NONE',  ( -2.382254525458728119E-15, -0.7071067811865441310, -0.7071067811865507924 ) ) ;
#17 = DIRECTION ( 'NONE',  ( -3.491481338843133355E-15, 1.224646799147353207E-16, -1.000000000000000000 ) ) ;
#18 = CARTESIAN_POINT ( 'NONE',  ( 2.307194371274506847E-13, -2.300000000000007816, 66.00000000000000000 ) ) ;
#19 = COORDINATED_UNIVERSAL_TIME_OFFSET ( 1, 0, .AHEAD. ) ;
#20 = APPROVAL ( #250, 'UNSPECIFIED' ) ;
#21 = PERSON_AND_ORGANIZATION_ROLE ( 'classification_officer' ) ;
#22 = CC_DESIGN_APPROVAL ( #95, ( #149 ) ) ;
#23 = ADVANCED_FACE ( 'NONE', ( #31 ), #148, .T. ) ;
#24 = DIRECTION ( 'NONE',  ( -3.491481338843133355E-15, 1.224646799147353207E-16, -1.000000000000000000 ) ) ;
#25 = DIRECTION ( 'NONE',  ( -3.491481338843133355E-15, 1.224646799147353207E-16, -1.000000000000000000 ) ) ;
#26 = CALENDAR_DATE ( 2021, 3, 9 ) ;
#27 = AXIS2_PLACEMENT_3D ( 'NONE', #94, #255, #297 ) ;
#28 = DIRECTION ( 'NONE',  ( -3.491481338843133355E-15, 1.224646799147353207E-16, -1.000000000000000000 ) ) ;
#29 = EDGE_CURVE ( 'NONE', #241, #260, #123, .T. ) ;
#30 = PERSON_AND_ORGANIZATION ( #321, #161 ) ;
#31 = FACE_OUTER_BOUND ( 'NONE', #184, .T. ) ;
#32 = VERTEX_POINT ( 'NONE', #10 ) ;
#33 = APPLICATION_PROTOCOL_DEFINITION ( 'international standard', 'config_control_design', 1994, #271 ) ;
#34 = CC_DESIGN_DATE_AND_TIME_ASSIGNMENT ( #194, #168, ( #106 ) ) ;
#35 = DIRECTION ( 'NONE',  ( -3.491481338843133355E-15, 1.224646799147353207E-16, -1.000000000000000000 ) ) ;
#36 = EDGE_LOOP ( 'NONE', ( #171, #130, #224, #64 ) ) ;
#37 = COORDINATED_UNIVERSAL_TIME_OFFSET ( 1, 0, .AHEAD. ) ;
#38 = CARTESIAN_POINT ( 'NONE',  ( 2.304377683636468267E-13, -8.082668874372532400E-15, 66.00000000000000000 ) ) ;
#39 = LINE ( 'NONE', #280, #103 ) ;
#40 = SECURITY_CLASSIFICATION_LEVEL ( 'unclassified' ) ;
#41 = DIRECTION ( 'NONE',  ( -3.491481338843133355E-15, 1.224646799147353207E-16, -1.000000000000000000 ) ) ;
#42 = CONICAL_SURFACE ( 'NONE', #111, 2.999999999999992006, 1.029744258676649649 ) ;
#43 = CARTESIAN_POINT ( 'NONE',  ( 2.279937314264566018E-13, -7.996943598432214956E-15, 65.29999999999999716 ) ) ;
#44 = ADVANCED_FACE ( 'NONE', ( #248 ), #1, .F. ) ;
#45 = DIRECTION ( 'NONE',  ( 3.491481338843133355E-15, -1.224646799147353207E-16, 1.000000000000000000 ) ) ;
#46 = LINE ( 'NONE', #231, #50 ) ;
#47 = EDGE_CURVE ( 'NONE', #200, #83, #101, .T. ) ;
#48 = EDGE_LOOP ( 'NONE', ( #170, #289, #90, #8 ) ) ;
#49 = DATE_AND_TIME ( #26, #330 ) ;
#50 = VECTOR ( 'NONE', #299, 1000.000000000000000 ) ;
#51 = APPROVAL_ROLE ( '' ) ;
#52 = AXIS2_PLACEMENT_3D ( 'NONE', #333, #24, #110 ) ;
#53 = LINE ( 'NONE', #18, #183 ) ;
#54 = PERSON_AND_ORGANIZATION ( #321, #161 ) ;
#55 = CARTESIAN_POINT ( 'NONE',  ( 6.293680915741429832E-15, -2.999999999999992450, 1.802581857082695027 ) ) ;
#56 = EDGE_LOOP ( 'NONE', ( #137, #2 ) ) ;
#57 = CYLINDRICAL_SURFACE ( 'NONE', #201, 2.999999999999996447 ) ;
#58 = PRODUCT_RELATED_PRODUCT_CATEGORY ( 'detail', '', ( #61 ) ) ;
#59 = CIRCLE ( 'NONE', #259, 2.999999999999999112 ) ;
#60 = DIRECTION ( 'NONE',  ( 4.275831445896958607E-31, 1.000000000000000000, 1.224646799147353207E-16 ) ) ;
#61 = PRODUCT ( '42173', '42173', '', ( #337 ) ) ;
#62 = CARTESIAN_POINT ( 'NONE',  ( 7.332110811570580046E-14, -2.571758278209441661E-15, 21.00000000000000000 ) ) ;
#63 = PERSON_AND_ORGANIZATION ( #321, #161 ) ;
#64 = ORIENTED_EDGE ( 'NONE', *, *, #119, .F. ) ;
#65 = ORIENTED_EDGE ( 'NONE', *, *, #92, .F. ) ;
#66 = DIRECTION ( 'NONE',  ( -3.491481338843133355E-15, 1.224646799147353207E-16, -1.000000000000000000 ) ) ;
#67 = APPROVAL_PERSON_ORGANIZATION ( #54, #95, #251 ) ;
#68 = DIRECTION ( 'NONE',  ( 0.0000000000000000000, 1.000000000000000000, 0.0000000000000000000 ) ) ;
#69 = ORIENTED_EDGE ( 'NONE', *, *, #12, .F. ) ;
#70 = CARTESIAN_POINT ( 'NONE',  ( 0.0000000000000000000, 0.0000000000000000000, 0.0000000000000000000 ) ) ;
#71 =( LENGTH_UNIT ( ) NAMED_UNIT ( * ) SI_UNIT ( .MILLI., .METRE. ) );
#72 = ORIENTED_EDGE ( 'NONE', *, *, #29, .F. ) ;
#73 = CC_DESIGN_PERSON_AND_ORGANIZATION_ASSIGNMENT ( #327, #21, ( #149 ) ) ;
#74 = DIRECTION ( 'NONE',  ( 3.491481338843133355E-15, -1.224646799147353207E-16, 1.000000000000000000 ) ) ;
#75 = CONICAL_SURFACE ( 'NONE', #312, 2.299999999999999378, 0.7853981633974437271 ) ;
#76 = DIRECTION ( 'NONE',  ( -5.135813185032642663E-31, -1.000000000000000000, -1.445602896647343107E-16 ) ) ;
#77 = DATE_TIME_ROLE ( 'classification_date' ) ;
#78 = PERSON_AND_ORGANIZATION_ROLE ( 'creator' ) ;
#79 = ORIENTED_EDGE ( 'NONE', *, *, #322, .T. ) ;
#80 = CARTESIAN_POINT ( 'NONE',  ( 2.304377683636468267E-13, 1.724723750061123386E-32, 66.00000000000000000 ) ) ;
#81 = ADVANCED_FACE ( 'NONE', ( #243 ), #220, .T. ) ;
#82 = PERSON_AND_ORGANIZATION_ROLE ( 'design_owner' ) ;
#83 = VERTEX_POINT ( 'NONE', #331 ) ;
#84 = DIRECTION ( 'NONE',  ( 4.275831445896958607E-31, 1.000000000000000000, 1.224646799147353207E-16 ) ) ;
#85 = EDGE_LOOP ( 'NONE', ( #15, #79, #72, #227 ) ) ;
#86 = VERTEX_POINT ( 'NONE', #105 ) ;
#87 = VERTEX_POINT ( 'NONE', #70 ) ;
#88 = ADVANCED_FACE ( 'NONE', ( #188 ), #109, .T. ) ;
#89 = CARTESIAN_POINT ( 'NONE',  ( 0.0000000000000000000, 0.0000000000000000000, 0.0000000000000000000 ) ) ;
#90 = ORIENTED_EDGE ( 'NONE', *, *, #242, .F. ) ;
#91 = CYLINDRICAL_SURFACE ( 'NONE', #210, 2.999999999999996447 ) ;
#92 = EDGE_CURVE ( 'NONE', #86, #200, #233, .T. ) ;
#93 = ORIENTED_EDGE ( 'NONE', *, *, #29, .T. ) ;
#94 = CARTESIAN_POINT ( 'NONE',  ( 7.332110811570580046E-14, 2.249639673992777927E-32, 21.00000000000000000 ) ) ;
#95 = APPROVAL ( #246, 'UNSPECIFIED' ) ;
#96 = CALENDAR_DATE ( 2021, 3, 9 ) ;
#97 = CLOSED_SHELL ( 'NONE', ( #202, #258, #88, #81, #334 ) ) ;
#98 = CIRCLE ( 'NONE', #245, 2.299999999999999378 ) ;
#99 = LINE ( 'NONE', #212, #287 ) ;
#100 = FACE_OUTER_BOUND ( 'NONE', #48, .T. ) ;
#101 = LINE ( 'NONE', #134, #141 ) ;
#102 = ORIENTED_EDGE ( 'NONE', *, *, #47, .T. ) ;
#103 = VECTOR ( 'NONE', #324, 1000.000000000000000 ) ;
#104 = LOCAL_TIME ( 9, 22, 22.00000000000000000, #37 ) ;
#105 = CARTESIAN_POINT ( 'NONE',  ( 4.017478855546779535E-14, -2.999999999999996891, 21.00000000000000000 ) ) ;
#106 = PRODUCT_DEFINITION ( 'UNKNOWN', '', #336, #175 ) ;
#107 = CARTESIAN_POINT ( 'NONE',  ( 6.293680915741431410E-15, -2.207526101477414559E-16, 1.802581857082695471 ) ) ;
#108 = ORIENTED_EDGE ( 'NONE', *, *, #154, .F. ) ;
#109 = CONICAL_SURFACE ( 'NONE', #216, 2.999999999999992006, 1.029744258676649649 ) ;
#110 = DIRECTION ( 'NONE',  ( 5.135813185032642663E-31, 1.000000000000000000, 1.445602896647343107E-16 ) ) ;
#111 = AXIS2_PLACEMENT_3D ( 'NONE', #221, #74, #316 ) ;
#112 = ORIENTED_EDGE ( 'NONE', *, *, #322, .F. ) ;
#113 = APPLICATION_PROTOCOL_DEFINITION ( 'international standard', 'config_control_design', 1994, #116 ) ;
#114 = CARTESIAN_POINT ( 'NONE',  ( 2.279937314264566018E-13, -7.996943598432214956E-15, 65.29999999999999716 ) ) ;
#115 = DIRECTION ( 'NONE',  ( 0.0000000000000000000, 0.0000000000000000000, 1.000000000000000000 ) ) ;
#116 = APPLICATION_CONTEXT ( 'configuration controlled 3d designs of mechanical parts and assemblies' ) ;
#117 = ORIENTED_EDGE ( 'NONE', *, *, #313, .T. ) ;
#118 = CC_DESIGN_SECURITY_CLASSIFICATION ( #149, ( #336 ) ) ;
#119 = EDGE_CURVE ( 'NONE', #198, #237, #126, .T. ) ;
#120 = ORIENTED_EDGE ( 'NONE', *, *, #12, .T. ) ;
#121 = ORIENTED_EDGE ( 'NONE', *, *, #332, .T. ) ;
#122 = APPROVAL_DATE_TIME ( #208, #294 ) ;
#123 = CIRCLE ( 'NONE', #209, 2.999999999999999112 ) ;
#124 = CARTESIAN_POINT ( 'NONE',  ( 1.510248138108253750E-13, -2.999999999999996447, 21.00000000000000000 ) ) ;
#125 = PLANE ( 'NONE',  #27 ) ;
#126 = CIRCLE ( 'NONE', #165, 2.999999999999993783 ) ;
#127 = DIRECTION ( 'NONE',  ( -3.491481338843133355E-15, 1.224646799147353207E-16, -1.000000000000000000 ) ) ;
#128 = CC_DESIGN_PERSON_AND_ORGANIZATION_ASSIGNMENT ( #30, #82, ( #61 ) ) ;
#129 = CARTESIAN_POINT ( 'NONE',  ( 0.0000000000000000000, 0.0000000000000000000, 0.0000000000000000000 ) ) ;
#130 = ORIENTED_EDGE ( 'NONE', *, *, #228, .T. ) ;
#131 = DIRECTION ( 'NONE',  ( -3.491481338843133355E-15, 1.224646799147353207E-16, -1.000000000000000000 ) ) ;
#132 = ADVANCED_BREP_SHAPE_REPRESENTATION ( '42173', ( #283, #276, #269 ), #278 ) ;
#133 = ORIENTED_EDGE ( 'NONE', *, *, #135, .F. ) ;
#134 = CARTESIAN_POINT ( 'NONE',  ( 1.282749433769084604E-30, 2.999999999999993339, 3.673940397442050993E-16 ) ) ;
#135 = EDGE_CURVE ( 'NONE', #241, #237, #46, .T. ) ;
#136 = VECTOR ( 'NONE', #28, 1000.000000000000000 ) ;
#137 = ORIENTED_EDGE ( 'NONE', *, *, #270, .T. ) ;
#138 = AXIS2_PLACEMENT_3D ( 'NONE', #281, #45, #329 ) ;
#139 = DIRECTION ( 'NONE',  ( -3.491481338843133355E-15, 1.224646799147353207E-16, -1.000000000000000000 ) ) ;
#140 = CIRCLE ( 'NONE', #318, 2.999999999999992006 ) ;
#141 = VECTOR ( 'NONE', #139, 1000.000000000000000 ) ;
#142 = EDGE_CURVE ( 'NONE', #32, #187, #272, .T. ) ;
#143 = CC_DESIGN_APPROVAL ( #294, ( #336 ) ) ;
#144 =( NAMED_UNIT ( * ) PLANE_ANGLE_UNIT ( ) SI_UNIT ( $, .RADIAN. ) );
#145 = DIRECTION ( 'NONE',  ( 0.0000000000000000000, 1.000000000000000000, 0.0000000000000000000 ) ) ;
#146 = PERSON_AND_ORGANIZATION ( #321, #161 ) ;
#147 = EDGE_LOOP ( 'NONE', ( #192, #315, #120 ) ) ;
#148 = CONICAL_SURFACE ( 'NONE', #244, 2.299999999999999378, 0.7853981633974437271 ) ;
#149 = SECURITY_CLASSIFICATION ( '', '', #40 ) ;
#150 = CARTESIAN_POINT ( 'NONE',  ( 2.304377683636468267E-13, -8.082668874372532400E-15, 66.00000000000000000 ) ) ;
#151 = ORIENTED_EDGE ( 'NONE', *, *, #163, .T. ) ;
#152 = DIRECTION ( 'NONE',  ( -3.491481338843133355E-15, 1.224646799147353207E-16, -1.000000000000000000 ) ) ;
#153 = DIRECTION ( 'NONE',  ( -3.491481338843133355E-15, 1.224646799147353207E-16, -1.000000000000000000 ) ) ;
#154 = EDGE_CURVE ( 'NONE', #87, #193, #39, .T. ) ;
#155 = APPROVAL_PERSON_ORGANIZATION ( #206, #294, #173 ) ;
#156 = ORIENTED_EDGE ( 'NONE', *, *, #267, .F. ) ;
#157 = PERSON_AND_ORGANIZATION_ROLE ( 'creator' ) ;
#158 = DIRECTION ( 'NONE',  ( 0.0000000000000000000, 1.000000000000000000, 0.0000000000000000000 ) ) ;
#159 = EDGE_CURVE ( 'NONE', #86, #193, #99, .T. ) ;
#160 = CARTESIAN_POINT ( 'NONE',  ( 6.661074955485637643E-15, 2.999999999999991562, 1.802581857082695915 ) ) ;
#161 = ORGANIZATION ( 'UNSPECIFIED', 'UNSPECIFIED', '' ) ;
#162 = CC_DESIGN_PERSON_AND_ORGANIZATION_ASSIGNMENT ( #63, #157, ( #336 ) ) ;
#163 = EDGE_CURVE ( 'NONE', #260, #198, #275, .T. ) ;
#164 = APPROVAL_DATE_TIME ( #49, #95 ) ;
#165 = AXIS2_PLACEMENT_3D ( 'NONE', #215, #17, #178 ) ;
#166 = CARTESIAN_POINT ( 'NONE',  ( 7.332110811570580046E-14, -2.571758278209441661E-15, 21.00000000000000000 ) ) ;
#167 = COORDINATED_UNIVERSAL_TIME_OFFSET ( 1, 0, .AHEAD. ) ;
#168 = DATE_TIME_ROLE ( 'creation_date' ) ;
#169 = CARTESIAN_POINT ( 'NONE',  ( 7.332110811570580046E-14, 2.999999999999991562, 21.00000000000000000 ) ) ;
#170 = ORIENTED_EDGE ( 'NONE', *, *, #267, .T. ) ;
#171 = ORIENTED_EDGE ( 'NONE', *, *, #163, .F. ) ;
#172 = FACE_OUTER_BOUND ( 'NONE', #177, .T. ) ;
#173 = APPROVAL_ROLE ( '' ) ;
#174 = APPROVAL_STATUS ( 'not_yet_approved' ) ;
#175 = DESIGN_CONTEXT ( 'detailed design', #116, 'design' ) ;
#176 = APPROVAL_PERSON_ORGANIZATION ( #146, #20, #51 ) ;
#177 = EDGE_LOOP ( 'NONE', ( #108, #195, #218 ) ) ;
#178 = DIRECTION ( 'NONE',  ( 0.0000000000000000000, 1.000000000000000000, 0.0000000000000000000 ) ) ;
#179 = DIRECTION ( 'NONE',  ( -3.491481338843133355E-15, 1.224646799147353207E-16, -1.000000000000000000 ) ) ;
#180 = DIRECTION ( 'NONE',  ( 0.0000000000000000000, 1.000000000000000000, 0.0000000000000000000 ) ) ;
#181 = DIRECTION ( 'NONE',  ( 4.275831445896958607E-31, 1.000000000000000000, 1.224646799147352961E-16 ) ) ;
#182 = AXIS2_PLACEMENT_3D ( 'NONE', #62, #127, #213 ) ;
#183 = VECTOR ( 'NONE', #16, 1000.000000000000000 ) ;
#184 = EDGE_LOOP ( 'NONE', ( #112, #121, #117, #293 ) ) ;
#185 = DIRECTION ( 'NONE',  ( 0.0000000000000000000, 1.000000000000000000, 0.0000000000000000000 ) ) ;
#186 = PLANE ( 'NONE',  #138 ) ;
#187 = VERTEX_POINT ( 'NONE', #335 ) ;
#188 = FACE_OUTER_BOUND ( 'NONE', #147, .T. ) ;
#189 = UNCERTAINTY_MEASURE_WITH_UNIT (LENGTH_MEASURE( 1.000000000000000082E-05 ), #71, 'distance_accuracy_value', 'NONE');
#190 = ADVANCED_FACE ( 'NONE', ( #11 ), #57, .T. ) ;
#191 = DATE_AND_TIME ( #306, #300 ) ;
#192 = ORIENTED_EDGE ( 'NONE', *, *, #309, .F. ) ;
#193 = VERTEX_POINT ( 'NONE', #55 ) ;
#194 = DATE_AND_TIME ( #310, #284 ) ;
#195 = ORIENTED_EDGE ( 'NONE', *, *, #309, .T. ) ;
#196 = CARTESIAN_POINT ( 'NONE',  ( 0.0000000000000000000, 0.0000000000000000000, 0.0000000000000000000 ) ) ;
#197 = DIRECTION ( 'NONE',  ( 1.903218546456022717E-15, 0.8571673007021097801, 0.5150380749100585964 ) ) ;
#198 = VERTEX_POINT ( 'NONE', #124 ) ;
#199 = ADVANCED_FACE ( 'NONE', ( #230 ), #91, .T. ) ;
#200 = VERTEX_POINT ( 'NONE', #169 ) ;
#201 = AXIS2_PLACEMENT_3D ( 'NONE', #89, #153, #60 ) ;
#202 = ADVANCED_FACE ( 'NONE', ( #100 ), #5, .T. ) ;
#203 = EDGE_LOOP ( 'NONE', ( #156, #65 ) ) ;
#204 = CARTESIAN_POINT ( 'NONE',  ( 1.510248138108252740E-13, -3.000000000000007105, 65.29999999999999716 ) ) ;
#205 = DIRECTION ( 'NONE',  ( -3.491481338843133355E-15, 1.224646799147353207E-16, -1.000000000000000000 ) ) ;
#206 = PERSON_AND_ORGANIZATION ( #321, #161 ) ;
#207 = EDGE_LOOP ( 'NONE', ( #307, #273 ) ) ;
#208 = DATE_AND_TIME ( #96, #104 ) ;
#209 = AXIS2_PLACEMENT_3D ( 'NONE', #114, #249, #308 ) ;
#210 = AXIS2_PLACEMENT_3D ( 'NONE', #323, #3, #84 ) ;
#211 = ORIENTED_EDGE ( 'NONE', *, *, #270, .F. ) ;
#212 = CARTESIAN_POINT ( 'NONE',  ( 3.673940397442038667E-16, -2.999999999999993339, -3.673940397442063812E-16 ) ) ;
#213 = DIRECTION ( 'NONE',  ( 0.0000000000000000000, 1.000000000000000000, 0.0000000000000000000 ) ) ;
#214 = FACE_OUTER_BOUND ( 'NONE', #85, .T. ) ;
#215 = CARTESIAN_POINT ( 'NONE',  ( 7.332110811570580046E-14, -2.571758278209441661E-15, 21.00000000000000000 ) ) ;
#216 = AXIS2_PLACEMENT_3D ( 'NONE', #107, #302, #76 ) ;
#217 = CARTESIAN_POINT ( 'NONE',  ( 7.332110811570580046E-14, 2.999999999999991562, 21.00000000000000000 ) ) ;
#218 = ORIENTED_EDGE ( 'NONE', *, *, #242, .T. ) ;
#219 = CARTESIAN_POINT ( 'NONE',  ( 3.673940397442042612E-16, -2.999999999999996447, -3.673940397442067757E-16 ) ) ;
#220 = CYLINDRICAL_SURFACE ( 'NONE', #325, 2.999999999999993339 ) ;
#221 = CARTESIAN_POINT ( 'NONE',  ( 6.293680915741431410E-15, -2.207526101477414559E-16, 1.802581857082695471 ) ) ;
#222 = COORDINATED_UNIVERSAL_TIME_OFFSET ( 1, 0, .AHEAD. ) ;
#223 = DIRECTION ( 'NONE',  ( -3.491481338843133355E-15, 1.224646799147353207E-16, -1.000000000000000000 ) ) ;
#224 = ORIENTED_EDGE ( 'NONE', *, *, #135, .T. ) ;
#225 = ORIENTED_EDGE ( 'NONE', *, *, #92, .T. ) ;
#226 = APPROVAL_DATE_TIME ( #191, #20 ) ;
#227 = ORIENTED_EDGE ( 'NONE', *, *, #313, .F. ) ;
#228 = EDGE_CURVE ( 'NONE', #260, #241, #59, .T. ) ;
#229 = PERSON_AND_ORGANIZATION ( #321, #161 ) ;
#230 = FACE_OUTER_BOUND ( 'NONE', #257, .T. ) ;
#231 = CARTESIAN_POINT ( 'NONE',  ( 1.282749433769086181E-30, 2.999999999999996447, 3.673940397442055431E-16 ) ) ;
#232 = DIRECTION ( 'NONE',  ( 0.0000000000000000000, 1.000000000000000000, 0.0000000000000000000 ) ) ;
#233 = CIRCLE ( 'NONE', #268, 2.999999999999993783 ) ;
#234 = CC_DESIGN_APPROVAL ( #20, ( #106 ) ) ;
#235 = DIRECTION ( 'NONE',  ( -3.491481338843133355E-15, 1.224646799147353207E-16, -1.000000000000000000 ) ) ;
#236 = ADVANCED_FACE ( 'NONE', ( #262 ), #186, .F. ) ;
#237 = VERTEX_POINT ( 'NONE', #217 ) ;
#238 = CALENDAR_DATE ( 2021, 3, 9 ) ;
#239 = CARTESIAN_POINT ( 'NONE',  ( 2.279937314264566018E-13, 2.999999999999991562, 65.29999999999999716 ) ) ;
#240 = CARTESIAN_POINT ( 'NONE',  ( 0.0000000000000000000, 0.0000000000000000000, 0.0000000000000000000 ) ) ;
#241 = VERTEX_POINT ( 'NONE', #239 ) ;
#242 = EDGE_CURVE ( 'NONE', #83, #193, #274, .T. ) ;
#243 = FACE_OUTER_BOUND ( 'NONE', #314, .T. ) ;
#244 = AXIS2_PLACEMENT_3D ( 'NONE', #150, #152, #145 ) ;
#245 = AXIS2_PLACEMENT_3D ( 'NONE', #38, #205, #253 ) ;
#246 = APPROVAL_STATUS ( 'not_yet_approved' ) ;
#247 = CC_DESIGN_PERSON_AND_ORGANIZATION_ASSIGNMENT ( #229, #256, ( #336 ) ) ;
#248 = FACE_OUTER_BOUND ( 'NONE', #207, .T. ) ;
#249 = DIRECTION ( 'NONE',  ( -3.491481338843133355E-15, 1.224646799147353207E-16, -1.000000000000000000 ) ) ;
#250 = APPROVAL_STATUS ( 'not_yet_approved' ) ;
#251 = APPROVAL_ROLE ( '' ) ;
#252 = AXIS2_PLACEMENT_3D ( 'NONE', #326, #131, #185 ) ;
#253 = DIRECTION ( 'NONE',  ( 0.0000000000000000000, 1.000000000000000000, 0.0000000000000000000 ) ) ;
#254 = CARTESIAN_POINT ( 'NONE',  ( 2.304377683636468267E-13, -8.082668874372532400E-15, 66.00000000000000000 ) ) ;
#255 = DIRECTION ( 'NONE',  ( 3.491481338843133355E-15, -1.224646799147353207E-16, 1.000000000000000000 ) ) ;
#256 = PERSON_AND_ORGANIZATION_ROLE ( 'design_supplier' ) ;
#257 = EDGE_LOOP ( 'NONE', ( #93, #151, #211, #133 ) ) ;
#258 = ADVANCED_FACE ( 'NONE', ( #172 ), #42, .T. ) ;
#259 = AXIS2_PLACEMENT_3D ( 'NONE', #43, #235, #68 ) ;
#260 = VERTEX_POINT ( 'NONE', #204 ) ;
#261 = DIRECTION ( 'NONE',  ( -3.491481338843133355E-15, 1.224646799147353207E-16, -1.000000000000000000 ) ) ;
#262 = FACE_OUTER_BOUND ( 'NONE', #56, .T. ) ;
#263 = CC_DESIGN_PERSON_AND_ORGANIZATION_ASSIGNMENT ( #9, #78, ( #106 ) ) ;
#264 = COORDINATED_UNIVERSAL_TIME_OFFSET ( 1, 0, .AHEAD. ) ;
#265 = DIRECTION ( 'NONE',  ( -2.468850131082276388E-15, 0.7071067811865443531, -0.7071067811865506814 ) ) ;
#266 = SHAPE_DEFINITION_REPRESENTATION ( #311, #132 ) ;
#267 = EDGE_CURVE ( 'NONE', #200, #86, #7, .T. ) ;
#268 = AXIS2_PLACEMENT_3D ( 'NONE', #166, #320, #180 ) ;
#269 = AXIS2_PLACEMENT_3D ( 'NONE', #196, #115, #286 ) ;
#270 = EDGE_CURVE ( 'NONE', #237, #198, #288, .T. ) ;
#271 = APPLICATION_CONTEXT ( 'configuration controlled 3d designs of mechanical parts and assemblies' ) ;
#272 = CIRCLE ( 'NONE', #252, 2.299999999999999378 ) ;
#273 = ORIENTED_EDGE ( 'NONE', *, *, #332, .F. ) ;
#274 = CIRCLE ( 'NONE', #52, 2.999999999999992006 ) ;
#275 = LINE ( 'NONE', #219, #136 ) ;
#276 = MANIFOLD_SOLID_BREP ( 'Corps-Déplacer/Copier1[2]', #97 ) ;
#277 = AXIS2_PLACEMENT_3D ( 'NONE', #80, #223, #4 ) ;
#278 =( GEOMETRIC_REPRESENTATION_CONTEXT ( 3 ) GLOBAL_UNCERTAINTY_ASSIGNED_CONTEXT ( ( #189 ) ) GLOBAL_UNIT_ASSIGNED_CONTEXT ( ( #71, #144, #290 ) ) REPRESENTATION_CONTEXT ( 'NONE', 'WORKASPACE' ) );
#279 = LINE ( 'NONE', #160, #295 ) ;
#280 = CARTESIAN_POINT ( 'NONE',  ( 6.293680915741429832E-15, -2.999999999999992450, 1.802581857082695027 ) ) ;
#281 = CARTESIAN_POINT ( 'NONE',  ( 7.332110811570580046E-14, 2.249639673992777927E-32, 21.00000000000000000 ) ) ;
#282 = ADVANCED_FACE ( 'NONE', ( #214 ), #75, .T. ) ;
#283 = MANIFOLD_SOLID_BREP ( 'Corps-Déplacer/Copier1[1]', #6 ) ;
#284 = LOCAL_TIME ( 9, 22, 22.00000000000000000, #167 ) ;
#285 = CARTESIAN_POINT ( 'NONE',  ( 6.293680915741431410E-15, -2.207526101477414559E-16, 1.802581857082695471 ) ) ;
#286 = DIRECTION ( 'NONE',  ( 1.000000000000000000, 0.0000000000000000000, 0.0000000000000000000 ) ) ;
#287 = VECTOR ( 'NONE', #179, 1000.000000000000000 ) ;
#288 = CIRCLE ( 'NONE', #182, 2.999999999999993783 ) ;
#289 = ORIENTED_EDGE ( 'NONE', *, *, #159, .T. ) ;
#290 =( NAMED_UNIT ( * ) SI_UNIT ( $, .STERADIAN. ) SOLID_ANGLE_UNIT ( ) );
#291 = CARTESIAN_POINT ( 'NONE',  ( 2.304377683636468267E-13, 2.299999999999991385, 66.00000000000000000 ) ) ;
#292 = VECTOR ( 'NONE', #265, 1000.000000000000000 ) ;
#293 = ORIENTED_EDGE ( 'NONE', *, *, #228, .F. ) ;
#294 = APPROVAL ( #174, 'UNSPECIFIED' ) ;
#295 = VECTOR ( 'NONE', #197, 999.9999999999998863 ) ;
#296 = CC_DESIGN_DATE_AND_TIME_ASSIGNMENT ( #301, #77, ( #149 ) ) ;
#297 = DIRECTION ( 'NONE',  ( -4.275831445896958607E-31, -1.000000000000000000, -1.224646799147353207E-16 ) ) ;
#298 = ORIENTED_EDGE ( 'NONE', *, *, #159, .F. ) ;
#299 = DIRECTION ( 'NONE',  ( -3.491481338843133355E-15, 1.224646799147353207E-16, -1.000000000000000000 ) ) ;
#300 = LOCAL_TIME ( 9, 22, 22.00000000000000000, #222 ) ;
#301 = DATE_AND_TIME ( #238, #319 ) ;
#302 = DIRECTION ( 'NONE',  ( 3.491481338843133355E-15, -1.224646799147353207E-16, 1.000000000000000000 ) ) ;
#303 = DIRECTION ( 'NONE',  ( 4.275831445896958607E-31, 1.000000000000000000, 1.224646799147352961E-16 ) ) ;
#304 = AXIS2_PLACEMENT_3D ( 'NONE', #305, #41, #232 ) ;
#305 = CARTESIAN_POINT ( 'NONE',  ( 7.332110811570580046E-14, -2.571758278209441661E-15, 21.00000000000000000 ) ) ;
#306 = CALENDAR_DATE ( 2021, 3, 9 ) ;
#307 = ORIENTED_EDGE ( 'NONE', *, *, #142, .F. ) ;
#308 = DIRECTION ( 'NONE',  ( 0.0000000000000000000, 1.000000000000000000, 0.0000000000000000000 ) ) ;
#309 = EDGE_CURVE ( 'NONE', #87, #83, #279, .T. ) ;
#310 = CALENDAR_DATE ( 2021, 3, 9 ) ;
#311 = PRODUCT_DEFINITION_SHAPE ( 'NONE', 'NONE',  #106 ) ;
#312 = AXIS2_PLACEMENT_3D ( 'NONE', #254, #35, #158 ) ;
#313 = EDGE_CURVE ( 'NONE', #32, #241, #317, .T. ) ;
#314 = EDGE_LOOP ( 'NONE', ( #298, #225, #102, #69 ) ) ;
#315 = ORIENTED_EDGE ( 'NONE', *, *, #154, .T. ) ;
#316 = DIRECTION ( 'NONE',  ( -5.135813185032642663E-31, -1.000000000000000000, -1.445602896647343107E-16 ) ) ;
#317 = LINE ( 'NONE', #291, #292 ) ;
#318 = AXIS2_PLACEMENT_3D ( 'NONE', #285, #261, #328 ) ;
#319 = LOCAL_TIME ( 9, 22, 22.00000000000000000, #19 ) ;
#320 = DIRECTION ( 'NONE',  ( -3.491481338843133355E-15, 1.224646799147353207E-16, -1.000000000000000000 ) ) ;
#321 = PERSON ( 'UNSPECIFIED', 'UNSPECIFIED', 'UNSPECIFIED', ('UNSPECIFIED'), ('UNSPECIFIED'), ('UNSPECIFIED') ) ;
#322 = EDGE_CURVE ( 'NONE', #187, #260, #53, .T. ) ;
#323 = CARTESIAN_POINT ( 'NONE',  ( 0.0000000000000000000, 0.0000000000000000000, 0.0000000000000000000 ) ) ;
#324 = DIRECTION ( 'NONE',  ( 1.798245827342160317E-15, -0.8571673007021098911, 0.5150380749100582634 ) ) ;
#325 = AXIS2_PLACEMENT_3D ( 'NONE', #240, #25, #303 ) ;
#326 = CARTESIAN_POINT ( 'NONE',  ( 2.304377683636468267E-13, -8.082668874372532400E-15, 66.00000000000000000 ) ) ;
#327 = PERSON_AND_ORGANIZATION ( #321, #161 ) ;
#328 = DIRECTION ( 'NONE',  ( 5.135813185032642663E-31, 1.000000000000000000, 1.445602896647343107E-16 ) ) ;
#329 = DIRECTION ( 'NONE',  ( -4.275831445896958607E-31, -1.000000000000000000, -1.224646799147353207E-16 ) ) ;
#330 = LOCAL_TIME ( 9, 22, 22.00000000000000000, #264 ) ;
#331 = CARTESIAN_POINT ( 'NONE',  ( 6.661074955485637643E-15, 2.999999999999991562, 1.802581857082695915 ) ) ;
#332 = EDGE_CURVE ( 'NONE', #187, #32, #98, .T. ) ;
#333 = CARTESIAN_POINT ( 'NONE',  ( 6.293680915741431410E-15, -2.207526101477414559E-16, 1.802581857082695471 ) ) ;
#334 = ADVANCED_FACE ( 'NONE', ( #14 ), #125, .T. ) ;
#335 = CARTESIAN_POINT ( 'NONE',  ( 2.295402812968257334E-13, -2.300000000000007816, 66.00000000000000000 ) ) ;
#336 = PRODUCT_DEFINITION_FORMATION_WITH_SPECIFIED_SOURCE ( 'ANY', '', #61, .NOT_KNOWN. ) ;
#337 = MECHANICAL_CONTEXT ( 'NONE', #271, 'mechanical' ) ;
ENDSEC;
END-ISO-10303-21;
