ISO-10303-21;
HEADER;
FILE_DESCRIPTION (( 'STEP AP203' ),
    '1' );
FILE_NAME ('42172.step',
    '2021-11-01T09:16:15',
    ( '' ),
    ( '' ),
    'SwSTEP 2.0',
    'SolidWorks 2019',
    '' );
FILE_SCHEMA (( 'CONFIG_CONTROL_DESIGN' ));
ENDSEC;

DATA;
#1 = CARTESIAN_POINT ( 'NONE',  ( 3.902212535531134027E-15, -1.362672346303078047E-16, 1.117638090205028245 ) ) ;
#2 = CARTESIAN_POINT ( 'NONE',  ( 3.363561979345034241E-14, -1.174572848761060178E-15, 9.633624392961861460 ) ) ;
#3 = EDGE_LOOP ( 'NONE', ( #53 ) ) ;
#4 = DIRECTION ( 'NONE',  ( -4.275831445896958607E-31, -1.000000000000000000, -1.224646799147353207E-16 ) ) ;
#5 = ADVANCED_FACE ( 'NONE', ( #169 ), #56, .F. ) ;
#6 = AXIS2_PLACEMENT_3D ( 'NONE', #229, #133, #211 ) ;
#7 = CC_DESIGN_PERSON_AND_ORGANIZATION_ASSIGNMENT ( #218, #45, ( #109 ) ) ;
#8 = DATE_AND_TIME ( #180, #122 ) ;
#9 = PERSON_AND_ORGANIZATION_ROLE ( 'design_owner' ) ;
#10 = EDGE_CURVE ( 'NONE', #37, #37, #108, .T. ) ;
#11 = APPLICATION_CONTEXT ( 'configuration controlled 3d designs of mechanical parts and assemblies' ) ;
#12 = VERTEX_POINT ( 'NONE', #221 ) ;
#13 = CARTESIAN_POINT ( 'NONE',  ( -2.051844418675603406E-30, -0.1499999999999999667, -5.876715982550434740E-16 ) ) ;
#14 = DIRECTION ( 'NONE',  ( 4.275831445896958607E-31, 1.000000000000000000, 1.224646799147353207E-16 ) ) ;
#15 = CARTESIAN_POINT ( 'NONE',  ( 1.326762908760390423E-13, -4.653657836759941941E-15, 38.00000000000000000 ) ) ;
#16 = CC_DESIGN_DATE_AND_TIME_ASSIGNMENT ( #8, #82, ( #94 ) ) ;
#17 = FACE_OUTER_BOUND ( 'NONE', #150, .T. ) ;
#18 = ORIENTED_EDGE ( 'NONE', *, *, #10, .T. ) ;
#19 = CARTESIAN_POINT ( 'NONE',  ( -1.987989959305817777E-30, 6.942161447148078506E-32, -5.693829542175120606E-16 ) ) ;
#20 = EDGE_LOOP ( 'NONE', ( #96 ) ) ;
#21 = FACE_OUTER_BOUND ( 'NONE', #134, .T. ) ;
#22 = ORIENTED_EDGE ( 'NONE', *, *, #77, .F. ) ;
#23 = LOCAL_TIME ( 10, 16, 15.00000000000000000, #185 ) ;
#24 = DIRECTION ( 'NONE',  ( -3.491481338843133355E-15, 1.224646799147353207E-16, -1.000000000000000000 ) ) ;
#25 = EDGE_CURVE ( 'NONE', #105, #105, #93, .T. ) ;
#26 = CALENDAR_DATE ( 2021, 1, 11 ) ;
#27 = VERTEX_POINT ( 'NONE', #156 ) ;
#28 = TOROIDAL_SURFACE ( 'NONE', #155, 2.149999999999999911, 2.000000000000000000 ) ;
#29 = APPLICATION_PROTOCOL_DEFINITION ( 'international standard', 'config_control_design', 1994, #154 ) ;
#30 = CC_DESIGN_PERSON_AND_ORGANIZATION_ASSIGNMENT ( #106, #65, ( #109 ) ) ;
#31 = MECHANICAL_CONTEXT ( 'NONE', #11, 'mechanical' ) ;
#32 = ADVANCED_FACE ( 'NONE', ( #193, #233 ), #67, .T. ) ;
#33 = AXIS2_PLACEMENT_3D ( 'NONE', #174, #101, #78 ) ;
#34 = ADVANCED_FACE ( 'NONE', ( #36, #39 ), #28, .F. ) ;
#35 = DIRECTION ( 'NONE',  ( 0.0000000000000000000, -1.000000000000000000, 0.0000000000000000000 ) ) ;
#36 = FACE_OUTER_BOUND ( 'NONE', #172, .T. ) ;
#37 = VERTEX_POINT ( 'NONE', #191 ) ;
#38 = ORIENTED_EDGE ( 'NONE', *, *, #228, .F. ) ;
#39 = FACE_OUTER_BOUND ( 'NONE', #189, .T. ) ;
#40 = EDGE_LOOP ( 'NONE', ( #116 ) ) ;
#41 = AXIS2_PLACEMENT_3D ( 'NONE', #184, #146, #186 ) ;
#42 = MANIFOLD_SOLID_BREP ( 'Corps-Déplacer/Copier1[1]', #171 ) ;
#43 = FACE_BOUND ( 'NONE', #147, .T. ) ;
#44 = PERSON_AND_ORGANIZATION ( #54, #182 ) ;
#45 = PERSON_AND_ORGANIZATION_ROLE ( 'creator' ) ;
#46 = APPROVAL_STATUS ( 'not_yet_approved' ) ;
#47 = ADVANCED_FACE ( 'NONE', ( #43, #21 ), #152, .T. ) ;
#48 = APPROVAL_ROLE ( '' ) ;
#49 = DIRECTION ( 'NONE',  ( -3.491481338843133355E-15, 1.224646799147353207E-16, -1.000000000000000000 ) ) ;
#50 = CC_DESIGN_APPROVAL ( #212, ( #173 ) ) ;
#51 = CARTESIAN_POINT ( 'NONE',  ( -6.413803915257455362E-31, 2.249659577954771652E-32, -1.836986451539392583E-16 ) ) ;
#52 = FACE_OUTER_BOUND ( 'NONE', #40, .T. ) ;
#53 = ORIENTED_EDGE ( 'NONE', *, *, #239, .F. ) ;
#54 = PERSON ( 'UNSPECIFIED', 'UNSPECIFIED', 'UNSPECIFIED', ('UNSPECIFIED'), ('UNSPECIFIED'), ('UNSPECIFIED') ) ;
#55 = CARTESIAN_POINT ( 'NONE',  ( 1.326762908760390423E-13, -4.653657836759941941E-15, 38.00000000000000000 ) ) ;
#56 = PLANE ( 'NONE',  #33 ) ;
#57 = FACE_OUTER_BOUND ( 'NONE', #153, .T. ) ;
#58 = EDGE_LOOP ( 'NONE', ( #230 ) ) ;
#59 = CARTESIAN_POINT ( 'NONE',  ( 0.0000000000000000000, 0.0000000000000000000, 0.0000000000000000000 ) ) ;
#60 = APPLICATION_PROTOCOL_DEFINITION ( 'international standard', 'config_control_design', 1994, #11 ) ;
#61 = PRODUCT ( '42172', '42172', '', ( #31 ) ) ;
#62 = CARTESIAN_POINT ( 'NONE',  ( 1.326762908760390423E-13, 1.199999999999993294, 38.00000000000000000 ) ) ;
#63 = LOCAL_TIME ( 10, 16, 15.00000000000000000, #240 ) ;
#64 =( LENGTH_UNIT ( ) NAMED_UNIT ( * ) SI_UNIT ( .MILLI., .METRE. ) );
#65 = PERSON_AND_ORGANIZATION_ROLE ( 'design_supplier' ) ;
#66 = AXIS2_PLACEMENT_3D ( 'NONE', #55, #226, #243 ) ;
#67 = CYLINDRICAL_SURFACE ( 'NONE', #238, 1.499999999999995337 ) ;
#68 = DIRECTION ( 'NONE',  ( 3.491481338843133355E-15, -1.224646799147353207E-16, 1.000000000000000000 ) ) ;
#69 = ORIENTED_EDGE ( 'NONE', *, *, #183, .T. ) ;
#70 = UNCERTAINTY_MEASURE_WITH_UNIT (LENGTH_MEASURE( 1.000000000000000082E-05 ), #64, 'distance_accuracy_value', 'NONE');
#71 = DIRECTION ( 'NONE',  ( 3.491481338843133355E-15, -1.219242935835426903E-16, 1.000000000000000000 ) ) ;
#72 = ORIENTED_EDGE ( 'NONE', *, *, #10, .F. ) ;
#73 = DIRECTION ( 'NONE',  ( -4.256963957985718523E-31, -1.000000000000000000, -1.219242935835426903E-16 ) ) ;
#74 = ORIENTED_EDGE ( 'NONE', *, *, #77, .T. ) ;
#75 = DIRECTION ( 'NONE',  ( 3.491481338843133355E-15, -1.219242935835426903E-16, 1.000000000000000000 ) ) ;
#76 = CC_DESIGN_APPROVAL ( #107, ( #109 ) ) ;
#77 = EDGE_CURVE ( 'NONE', #84, #84, #235, .T. ) ;
#78 = DIRECTION ( 'NONE',  ( -4.275831445896958607E-31, -1.000000000000000000, -1.224646799147353207E-16 ) ) ;
#79 = ADVANCED_BREP_SHAPE_REPRESENTATION ( '42172', ( #42, #209, #179 ), #225 ) ;
#80 = CIRCLE ( 'NONE', #126, 0.1500000000000000500 ) ;
#81 = PERSON_AND_ORGANIZATION ( #54, #182 ) ;
#82 = DATE_TIME_ROLE ( 'creation_date' ) ;
#83 = CARTESIAN_POINT ( 'NONE',  ( 2.094888803305877252E-15, -0.1500000000000001332, 0.5999999999999992006 ) ) ;
#84 = VERTEX_POINT ( 'NONE', #178 ) ;
#85 = DATE_TIME_ROLE ( 'classification_date' ) ;
#86 = DATE_AND_TIME ( #130, #23 ) ;
#87 = AXIS2_PLACEMENT_3D ( 'NONE', #89, #163, #241 ) ;
#88 = CONICAL_SURFACE ( 'NONE', #195, 1.199999999999997957, 0.7853981633974450594 ) ;
#89 = CARTESIAN_POINT ( 'NONE',  ( 0.0000000000000000000, 0.0000000000000000000, 0.0000000000000000000 ) ) ;
#90 = DIRECTION ( 'NONE',  ( 0.0000000000000000000, -1.000000000000000000, 0.0000000000000000000 ) ) ;
#91 = DIRECTION ( 'NONE',  ( -3.491481338843133355E-15, 1.224646799147353207E-16, -1.000000000000000000 ) ) ;
#92 = EDGE_LOOP ( 'NONE', ( #118 ) ) ;
#93 = CIRCLE ( 'NONE', #160, 0.1499999999999999667 ) ;
#94 = PRODUCT_DEFINITION ( 'UNKNOWN', '', #109, #144 ) ;
#95 = DIRECTION ( 'NONE',  ( -3.491481338843133355E-15, 1.224646799147353207E-16, -1.000000000000000000 ) ) ;
#96 = ORIENTED_EDGE ( 'NONE', *, *, #183, .F. ) ;
#97 = CARTESIAN_POINT ( 'NONE',  ( 2.060523404320880830E-14, -7.195451904303224460E-16, 5.901573585392881682 ) ) ;
#98 = CC_DESIGN_DATE_AND_TIME_ASSIGNMENT ( #86, #85, ( #173 ) ) ;
#99 = ORIENTED_EDGE ( 'NONE', *, *, #228, .T. ) ;
#100 = CC_DESIGN_APPROVAL ( #139, ( #94 ) ) ;
#101 = DIRECTION ( 'NONE',  ( 3.491481338843133355E-15, -1.224646799147353207E-16, 1.000000000000000000 ) ) ;
#102 = PRODUCT_DEFINITION_SHAPE ( 'NONE', 'NONE',  #94 ) ;
#103 = SECURITY_CLASSIFICATION_LEVEL ( 'unclassified' ) ;
#104 = DATE_AND_TIME ( #198, #63 ) ;
#105 = VERTEX_POINT ( 'NONE', #13 ) ;
#106 = PERSON_AND_ORGANIZATION ( #54, #182 ) ;
#107 = APPROVAL ( #46, 'UNSPECIFIED' ) ;
#108 = CIRCLE ( 'NONE', #145, 1.499999999999997558 ) ;
#109 = PRODUCT_DEFINITION_FORMATION_WITH_SPECIFIED_SOURCE ( 'ANY', '', #61, .NOT_KNOWN. ) ;
#110 = SHAPE_DEFINITION_REPRESENTATION ( #102, #79 ) ;
#111 = FACE_BOUND ( 'NONE', #58, .T. ) ;
#112 = PERSON_AND_ORGANIZATION_ROLE ( 'classification_officer' ) ;
#113 = DIRECTION ( 'NONE',  ( 3.491481338843133355E-15, -1.219242935835426903E-16, 1.000000000000000000 ) ) ;
#114 = ADVANCED_FACE ( 'NONE', ( #57 ), #231, .T. ) ;
#115 = DIRECTION ( 'NONE',  ( -3.491481338843133355E-15, 1.219242935835426903E-16, -1.000000000000000000 ) ) ;
#116 = ORIENTED_EDGE ( 'NONE', *, *, #25, .F. ) ;
#117 = AXIS2_PLACEMENT_3D ( 'NONE', #1, #71, #148 ) ;
#118 = ORIENTED_EDGE ( 'NONE', *, *, #124, .F. ) ;
#119 = APPROVAL_PERSON_ORGANIZATION ( #81, #139, #199 ) ;
#120 = VERTEX_POINT ( 'NONE', #62 ) ;
#121 = CIRCLE ( 'NONE', #6, 0.1500000000000000500 ) ;
#122 = LOCAL_TIME ( 10, 16, 15.00000000000000000, #175 ) ;
#123 = VERTEX_POINT ( 'NONE', #83 ) ;
#124 = EDGE_CURVE ( 'NONE', #120, #120, #127, .T. ) ;
#125 = DIRECTION ( 'NONE',  ( 1.000000000000000000, 0.0000000000000000000, 0.0000000000000000000 ) ) ;
#126 = AXIS2_PLACEMENT_3D ( 'NONE', #188, #75, #35 ) ;
#127 = CIRCLE ( 'NONE', #66, 1.199999999999997957 ) ;
#128 = FACE_OUTER_BOUND ( 'NONE', #3, .T. ) ;
#129 = APPROVAL_PERSON_ORGANIZATION ( #202, #107, #157 ) ;
#130 = CALENDAR_DATE ( 2021, 1, 11 ) ;
#131 = CC_DESIGN_PERSON_AND_ORGANIZATION_ASSIGNMENT ( #219, #176, ( #94 ) ) ;
#132 = DIRECTION ( 'NONE',  ( 0.0000000000000000000, 1.000000000000000000, 0.0000000000000000000 ) ) ;
#133 = DIRECTION ( 'NONE',  ( 3.491481338843133355E-15, -1.219242935835426903E-16, 1.000000000000000000 ) ) ;
#134 = EDGE_LOOP ( 'NONE', ( #74 ) ) ;
#135 = PLANE ( 'NONE',  #190 ) ;
#136 = CLOSED_SHELL ( 'NONE', ( #114, #206, #164 ) ) ;
#137 = FACE_OUTER_BOUND ( 'NONE', #92, .T. ) ;
#138 = CC_DESIGN_PERSON_AND_ORGANIZATION_ASSIGNMENT ( #44, #9, ( #61 ) ) ;
#139 = APPROVAL ( #200, 'UNSPECIFIED' ) ;
#140 =( NAMED_UNIT ( * ) SI_UNIT ( $, .STERADIAN. ) SOLID_ANGLE_UNIT ( ) );
#141 = AXIS2_PLACEMENT_3D ( 'NONE', #97, #115, #165 ) ;
#142 = COORDINATED_UNIVERSAL_TIME_OFFSET ( 1, 0, .AHEAD. ) ;
#143 = DIRECTION ( 'NONE',  ( 4.275831445896958607E-31, 1.000000000000000000, 1.224646799147353207E-16 ) ) ;
#144 = DESIGN_CONTEXT ( 'detailed design', #154, 'design' ) ;
#145 = AXIS2_PLACEMENT_3D ( 'NONE', #196, #24, #132 ) ;
#146 = DIRECTION ( 'NONE',  ( 3.491481338843133355E-15, -1.224646799147353207E-16, 1.000000000000000000 ) ) ;
#147 = EDGE_LOOP ( 'NONE', ( #99 ) ) ;
#148 = DIRECTION ( 'NONE',  ( 0.0000000000000000000, -1.000000000000000000, 0.0000000000000000000 ) ) ;
#149 = DIRECTION ( 'NONE',  ( 3.491481338843133355E-15, -1.219242935835426903E-16, 1.000000000000000000 ) ) ;
#150 = EDGE_LOOP ( 'NONE', ( #234 ) ) ;
#151 = CYLINDRICAL_SURFACE ( 'NONE', #87, 0.1500000000000000222 ) ;
#152 = CONICAL_SURFACE ( 'NONE', #222, 2.499999999999996447, 0.2617993877991429685 ) ;
#153 = EDGE_LOOP ( 'NONE', ( #192 ) ) ;
#154 = APPLICATION_CONTEXT ( 'configuration controlled 3d designs of mechanical parts and assemblies' ) ;
#155 = AXIS2_PLACEMENT_3D ( 'NONE', #168, #113, #224 ) ;
#156 = CARTESIAN_POINT ( 'NONE',  ( 2.094888803305877252E-15, -0.1500000000000001332, 0.5999999999999992006 ) ) ;
#157 = APPROVAL_ROLE ( '' ) ;
#158 = ADVANCED_FACE ( 'NONE', ( #137 ), #135, .F. ) ;
#159 = APPROVAL_DATE_TIME ( #162, #107 ) ;
#160 = AXIS2_PLACEMENT_3D ( 'NONE', #19, #149, #73 ) ;
#161 = LOCAL_TIME ( 10, 16, 15.00000000000000000, #237 ) ;
#162 = DATE_AND_TIME ( #26, #161 ) ;
#163 = DIRECTION ( 'NONE',  ( 3.491481338843133355E-15, -1.219242935835426903E-16, 1.000000000000000000 ) ) ;
#164 = ADVANCED_FACE ( 'NONE', ( #52 ), #214, .F. ) ;
#165 = DIRECTION ( 'NONE',  ( 0.0000000000000000000, -1.000000000000000000, 0.0000000000000000000 ) ) ;
#166 = DIRECTION ( 'NONE',  ( 0.0000000000000000000, 1.000000000000000000, 0.0000000000000000000 ) ) ;
#167 = EDGE_LOOP ( 'NONE', ( #18 ) ) ;
#168 = CARTESIAN_POINT ( 'NONE',  ( 2.094888803305877252E-15, 0.0000000000000000000, 0.5999999999999992006 ) ) ;
#169 = FACE_OUTER_BOUND ( 'NONE', #20, .T. ) ;
#170 = CARTESIAN_POINT ( 'NONE',  ( 1.326762908760390423E-13, 8.998558695971062171E-33, 38.00000000000000000 ) ) ;
#171 = CLOSED_SHELL ( 'NONE', ( #32, #220, #158, #47, #34, #5 ) ) ;
#172 = EDGE_LOOP ( 'NONE', ( #69 ) ) ;
#173 = SECURITY_CLASSIFICATION ( '', '', #103 ) ;
#174 = CARTESIAN_POINT ( 'NONE',  ( 2.094888803305878830E-15, -8.673617379884057659E-17, 0.5999999999999997558 ) ) ;
#175 = COORDINATED_UNIVERSAL_TIME_OFFSET ( 1, 0, .AHEAD. ) ;
#176 = PERSON_AND_ORGANIZATION_ROLE ( 'creator' ) ;
#177 = APPROVAL_DATE_TIME ( #104, #139 ) ;
#178 = CARTESIAN_POINT ( 'NONE',  ( 2.060523404320880830E-14, -1.499999999999996003, 5.901573585392881682 ) ) ;
#179 = AXIS2_PLACEMENT_3D ( 'NONE', #59, #201, #125 ) ;
#180 = CALENDAR_DATE ( 2021, 1, 11 ) ;
#181 = DATE_AND_TIME ( #204, #217 ) ;
#182 = ORGANIZATION ( 'UNSPECIFIED', 'UNSPECIFIED', '' ) ;
#183 = EDGE_CURVE ( 'NONE', #27, #27, #80, .T. ) ;
#184 = CARTESIAN_POINT ( 'NONE',  ( 2.094888803305878830E-15, -8.673617379884057659E-17, 0.5999999999999997558 ) ) ;
#185 = COORDINATED_UNIVERSAL_TIME_OFFSET ( 1, 0, .AHEAD. ) ;
#186 = DIRECTION ( 'NONE',  ( -4.275831445896958607E-31, -1.000000000000000000, -1.224646799147353207E-16 ) ) ;
#187 = APPROVAL_STATUS ( 'not_yet_approved' ) ;
#188 = CARTESIAN_POINT ( 'NONE',  ( 2.094888803305877252E-15, -7.315457615012551802E-17, 0.5999999999999992006 ) ) ;
#189 = EDGE_LOOP ( 'NONE', ( #38 ) ) ;
#190 = AXIS2_PLACEMENT_3D ( 'NONE', #170, #49, #14 ) ;
#191 = CARTESIAN_POINT ( 'NONE',  ( 1.316288464743861212E-13, 1.499999999999993117, 37.69999999999999574 ) ) ;
#192 = ORIENTED_EDGE ( 'NONE', *, *, #239, .T. ) ;
#193 = FACE_OUTER_BOUND ( 'NONE', #167, .T. ) ;
#194 = PRODUCT_RELATED_PRODUCT_CATEGORY ( 'detail', '', ( #61 ) ) ;
#195 = AXIS2_PLACEMENT_3D ( 'NONE', #15, #91, #166 ) ;
#196 = CARTESIAN_POINT ( 'NONE',  ( 1.316288464743861212E-13, -4.616918432785521081E-15, 37.69999999999999574 ) ) ;
#197 = CC_DESIGN_SECURITY_CLASSIFICATION ( #173, ( #109 ) ) ;
#198 = CALENDAR_DATE ( 2021, 1, 11 ) ;
#199 = APPROVAL_ROLE ( '' ) ;
#200 = APPROVAL_STATUS ( 'not_yet_approved' ) ;
#201 = DIRECTION ( 'NONE',  ( 0.0000000000000000000, 0.0000000000000000000, 1.000000000000000000 ) ) ;
#202 = PERSON_AND_ORGANIZATION ( #54, #182 ) ;
#203 = CC_DESIGN_PERSON_AND_ORGANIZATION_ASSIGNMENT ( #242, #112, ( #173 ) ) ;
#204 = CALENDAR_DATE ( 2021, 1, 11 ) ;
#205 = APPROVAL_DATE_TIME ( #181, #212 ) ;
#206 = ADVANCED_FACE ( 'NONE', ( #17, #128 ), #151, .T. ) ;
#207 = APPROVAL_PERSON_ORGANIZATION ( #223, #212, #48 ) ;
#208 = FACE_OUTER_BOUND ( 'NONE', #227, .T. ) ;
#209 = MANIFOLD_SOLID_BREP ( 'Corps-Déplacer/Copier1[2]', #136 ) ;
#210 = CARTESIAN_POINT ( 'NONE',  ( 0.0000000000000000000, 0.0000000000000000000, 0.0000000000000000000 ) ) ;
#211 = DIRECTION ( 'NONE',  ( 0.0000000000000000000, -1.000000000000000000, 0.0000000000000000000 ) ) ;
#212 = APPROVAL ( #187, 'UNSPECIFIED' ) ;
#213 = AXIS2_PLACEMENT_3D ( 'NONE', #51, #68, #4 ) ;
#214 = PLANE ( 'NONE',  #213 ) ;
#215 = EDGE_LOOP ( 'NONE', ( #22 ) ) ;
#216 = DIRECTION ( 'NONE',  ( 3.491481338843133355E-15, -1.219242935835426903E-16, 1.000000000000000000 ) ) ;
#217 = LOCAL_TIME ( 10, 16, 15.00000000000000000, #142 ) ;
#218 = PERSON_AND_ORGANIZATION ( #54, #182 ) ;
#219 = PERSON_AND_ORGANIZATION ( #54, #182 ) ;
#220 = ADVANCED_FACE ( 'NONE', ( #208, #111 ), #88, .T. ) ;
#221 = CARTESIAN_POINT ( 'NONE',  ( 3.902212535531134027E-15, -0.2181483474218602614, 1.117638090205028245 ) ) ;
#222 = AXIS2_PLACEMENT_3D ( 'NONE', #2, #216, #90 ) ;
#223 = PERSON_AND_ORGANIZATION ( #54, #182 ) ;
#224 = DIRECTION ( 'NONE',  ( -4.336949784501550237E-31, -1.000000000000000000, -1.219242935835426903E-16 ) ) ;
#225 =( GEOMETRIC_REPRESENTATION_CONTEXT ( 3 ) GLOBAL_UNCERTAINTY_ASSIGNED_CONTEXT ( ( #70 ) ) GLOBAL_UNIT_ASSIGNED_CONTEXT ( ( #64, #236, #140 ) ) REPRESENTATION_CONTEXT ( 'NONE', 'WORKASPACE' ) );
#226 = DIRECTION ( 'NONE',  ( -3.491481338843133355E-15, 1.224646799147353207E-16, -1.000000000000000000 ) ) ;
#227 = EDGE_LOOP ( 'NONE', ( #72 ) ) ;
#228 = EDGE_CURVE ( 'NONE', #12, #12, #232, .T. ) ;
#229 = CARTESIAN_POINT ( 'NONE',  ( 2.094888803305877252E-15, -7.315457615012551802E-17, 0.5999999999999992006 ) ) ;
#230 = ORIENTED_EDGE ( 'NONE', *, *, #124, .T. ) ;
#231 = PLANE ( 'NONE',  #41 ) ;
#232 = CIRCLE ( 'NONE', #117, 0.2181483474218601226 ) ;
#233 = FACE_OUTER_BOUND ( 'NONE', #215, .T. ) ;
#234 = ORIENTED_EDGE ( 'NONE', *, *, #25, .T. ) ;
#235 = CIRCLE ( 'NONE', #141, 1.499999999999995337 ) ;
#236 =( NAMED_UNIT ( * ) PLANE_ANGLE_UNIT ( ) SI_UNIT ( $, .RADIAN. ) );
#237 = COORDINATED_UNIVERSAL_TIME_OFFSET ( 1, 0, .AHEAD. ) ;
#238 = AXIS2_PLACEMENT_3D ( 'NONE', #210, #95, #143 ) ;
#239 = EDGE_CURVE ( 'NONE', #123, #123, #121, .T. ) ;
#240 = COORDINATED_UNIVERSAL_TIME_OFFSET ( 1, 0, .AHEAD. ) ;
#241 = DIRECTION ( 'NONE',  ( -4.256963957985708889E-31, -1.000000000000000000, -1.219242935835426656E-16 ) ) ;
#242 = PERSON_AND_ORGANIZATION ( #54, #182 ) ;
#243 = DIRECTION ( 'NONE',  ( 0.0000000000000000000, 1.000000000000000000, 0.0000000000000000000 ) ) ;
ENDSEC;
END-ISO-10303-21;
