ISO-10303-21;
HEADER;
FILE_DESCRIPTION (( 'STEP AP203' ),
    '1' );
FILE_NAME ('42171.step',
    '2021-09-03T07:22:21',
    ( '' ),
    ( '' ),
    'SwSTEP 2.0',
    'SolidWorks 2019',
    '' );
FILE_SCHEMA (( 'CONFIG_CONTROL_DESIGN' ));
ENDSEC;

DATA;
#1 = ADVANCED_FACE ( 'NONE', ( #209 ), #322, .F. ) ;
#2 = CARTESIAN_POINT ( 'NONE',  ( 2.444036937190193601E-13, -8.572527594031472993E-15, 70.00000000000000000 ) ) ;
#3 = CARTESIAN_POINT ( 'NONE',  ( 2.419596567818291352E-13, -8.486802318091157127E-15, 69.29999999999999716 ) ) ;
#4 = DIRECTION ( 'NONE',  ( -3.491481338843133355E-15, 1.224646799147353207E-16, -1.000000000000000000 ) ) ;
#5 = ORIENTED_EDGE ( 'NONE', *, *, #264, .F. ) ;
#6 = APPROVAL_STATUS ( 'not_yet_approved' ) ;
#7 = CARTESIAN_POINT ( 'NONE',  ( 8.030407079339205455E-14, 2.399615652258965330E-32, 23.00000000000000000 ) ) ;
#8 = DIRECTION ( 'NONE',  ( -3.491481338843133355E-15, 1.224646799147353207E-16, -1.000000000000000000 ) ) ;
#9 = ORIENTED_EDGE ( 'NONE', *, *, #118, .F. ) ;
#10 = LINE ( 'NONE', #74, #117 ) ;
#11 = ORIENTED_EDGE ( 'NONE', *, *, #172, .F. ) ;
#12 = AXIS2_PLACEMENT_3D ( 'NONE', #174, #278, #145 ) ;
#13 = ORIENTED_EDGE ( 'NONE', *, *, #306, .T. ) ;
#14 = EDGE_CURVE ( 'NONE', #49, #110, #162, .T. ) ;
#15 = VERTEX_POINT ( 'NONE', #238 ) ;
#16 = AXIS2_PLACEMENT_3D ( 'NONE', #7, #24, #59 ) ;
#17 = EDGE_LOOP ( 'NONE', ( #293, #139, #310, #236 ) ) ;
#18 = AXIS2_PLACEMENT_3D ( 'NONE', #57, #135, #114 ) ;
#19 = APPROVAL ( #308, 'UNSPECIFIED' ) ;
#20 = EDGE_LOOP ( 'NONE', ( #13, #103 ) ) ;
#21 = DIRECTION ( 'NONE',  ( 0.0000000000000000000, 1.000000000000000000, 0.0000000000000000000 ) ) ;
#22 = ADVANCED_FACE ( 'NONE', ( #61 ), #214, .T. ) ;
#23 = DIRECTION ( 'NONE',  ( 0.0000000000000000000, 1.000000000000000000, 0.0000000000000000000 ) ) ;
#24 = DIRECTION ( 'NONE',  ( 3.491481338843133355E-15, -1.224646799147353207E-16, 1.000000000000000000 ) ) ;
#25 = AXIS2_PLACEMENT_3D ( 'NONE', #190, #33, #202 ) ;
#26 = CIRCLE ( 'NONE', #99, 3.199999999999995737 ) ;
#27 = ORIENTED_EDGE ( 'NONE', *, *, #290, .T. ) ;
#28 = FACE_OUTER_BOUND ( 'NONE', #17, .T. ) ;
#29 = CALENDAR_DATE ( 2021, 3, 9 ) ;
#30 = AXIS2_PLACEMENT_3D ( 'NONE', #260, #300, #136 ) ;
#31 = LINE ( 'NONE', #90, #130 ) ;
#32 = APPROVAL ( #6, 'UNSPECIFIED' ) ;
#33 = DIRECTION ( 'NONE',  ( -3.491481338843133355E-15, 1.224646799147353207E-16, -1.000000000000000000 ) ) ;
#34 = ORIENTED_EDGE ( 'NONE', *, *, #330, .F. ) ;
#35 = CARTESIAN_POINT ( 'NONE',  ( 2.447098554188062106E-13, -2.500000000000010214, 70.00000000000000000 ) ) ;
#36 = CARTESIAN_POINT ( 'NONE',  ( 0.0000000000000000000, 0.0000000000000000000, 0.0000000000000000000 ) ) ;
#37 = DATE_TIME_ROLE ( 'creation_date' ) ;
#38 = ORIENTED_EDGE ( 'NONE', *, *, #241, .F. ) ;
#39 = UNCERTAINTY_MEASURE_WITH_UNIT (LENGTH_MEASURE( 1.000000000000000082E-05 ), #93, 'distance_accuracy_value', 'NONE');
#40 = CARTESIAN_POINT ( 'NONE',  ( 6.713259643457531412E-15, -2.354694508242577436E-16, 1.922753980888209702 ) ) ;
#41 = CIRCLE ( 'NONE', #228, 2.500000000000001332 ) ;
#42 = DIRECTION ( 'NONE',  ( -3.491481338843133355E-15, 1.224646799147353207E-16, -1.000000000000000000 ) ) ;
#43 = DATE_AND_TIME ( #277, #73 ) ;
#44 = DIRECTION ( 'NONE',  ( 0.0000000000000000000, 1.000000000000000000, 0.0000000000000000000 ) ) ;
#45 = LINE ( 'NONE', #280, #321 ) ;
#46 = ADVANCED_FACE ( 'NONE', ( #249 ), #69, .T. ) ;
#47 = DATE_TIME_ROLE ( 'classification_date' ) ;
#48 = PERSON_AND_ORGANIZATION ( #289, #147 ) ;
#49 = VERTEX_POINT ( 'NONE', #169 ) ;
#50 = CONICAL_SURFACE ( 'NONE', #151, 2.500000000000001332, 0.7853981633974439491 ) ;
#51 =( GEOMETRIC_REPRESENTATION_CONTEXT ( 3 ) GLOBAL_UNCERTAINTY_ASSIGNED_CONTEXT ( ( #39 ) ) GLOBAL_UNIT_ASSIGNED_CONTEXT ( ( #93, #193, #275 ) ) REPRESENTATION_CONTEXT ( 'NONE', 'WORKASPACE' ) );
#52 = LINE ( 'NONE', #153, #120 ) ;
#53 = ORIENTED_EDGE ( 'NONE', *, *, #172, .T. ) ;
#54 = DIRECTION ( 'NONE',  ( -3.491481338843133355E-15, 1.224646799147353207E-16, -1.000000000000000000 ) ) ;
#55 = DIRECTION ( 'NONE',  ( -3.491481338843133355E-15, 1.224646799147353207E-16, -1.000000000000000000 ) ) ;
#56 = FACE_OUTER_BOUND ( 'NONE', #311, .T. ) ;
#57 = CARTESIAN_POINT ( 'NONE',  ( 0.0000000000000000000, 0.0000000000000000000, 0.0000000000000000000 ) ) ;
#58 = DIRECTION ( 'NONE',  ( -4.275831445896958607E-31, -1.000000000000000000, -1.224646799147353207E-16 ) ) ;
#59 = DIRECTION ( 'NONE',  ( -4.275831445896958607E-31, -1.000000000000000000, -1.224646799147353207E-16 ) ) ;
#60 = ORIENTED_EDGE ( 'NONE', *, *, #79, .F. ) ;
#61 = FACE_OUTER_BOUND ( 'NONE', #72, .T. ) ;
#62 = VERTEX_POINT ( 'NONE', #270 ) ;
#63 = PERSON_AND_ORGANIZATION ( #289, #147 ) ;
#64 = APPLICATION_CONTEXT ( 'configuration controlled 3d designs of mechanical parts and assemblies' ) ;
#65 = EDGE_CURVE ( 'NONE', #62, #132, #210, .T. ) ;
#66 = APPLICATION_PROTOCOL_DEFINITION ( 'international standard', 'config_control_design', 1994, #113 ) ;
#67 = AXIS2_PLACEMENT_3D ( 'NONE', #276, #287, #131 ) ;
#68 = AXIS2_PLACEMENT_3D ( 'NONE', #237, #284, #112 ) ;
#69 = CYLINDRICAL_SURFACE ( 'NONE', #217, 3.199999999999998845 ) ;
#70 = ORIENTED_EDGE ( 'NONE', *, *, #161, .T. ) ;
#71 = ORIENTED_EDGE ( 'NONE', *, *, #182, .F. ) ;
#72 = EDGE_LOOP ( 'NONE', ( #53, #266, #230, #244 ) ) ;
#73 = LOCAL_TIME ( 9, 22, 21.00000000000000000, #149 ) ;
#74 = CARTESIAN_POINT ( 'NONE',  ( 7.105146619184685149E-15, 3.199999999999993072, 1.922753980888210146 ) ) ;
#75 = APPROVAL_ROLE ( '' ) ;
#76 = COORDINATED_UNIVERSAL_TIME_OFFSET ( 1, 0, .AHEAD. ) ;
#77 = DIRECTION ( 'NONE',  ( -2.468850131082275599E-15, 0.7071067811865445751, -0.7071067811865504593 ) ) ;
#78 = DIRECTION ( 'NONE',  ( -3.491481338843133355E-15, 1.224646799147353207E-16, -1.000000000000000000 ) ) ;
#79 = EDGE_CURVE ( 'NONE', #288, #132, #52, .T. ) ;
#80 = DATE_AND_TIME ( #316, #255 ) ;
#81 = AXIS2_PLACEMENT_3D ( 'NONE', #332, #121, #201 ) ;
#82 = APPROVAL_PERSON_ORGANIZATION ( #208, #170, #75 ) ;
#83 = DIRECTION ( 'NONE',  ( 1.903218546456021928E-15, 0.8571673007021098911, 0.5150380749100583744 ) ) ;
#84 = CARTESIAN_POINT ( 'NONE',  ( 8.030407079339205455E-14, 2.399615652258965330E-32, 23.00000000000000000 ) ) ;
#85 = SHAPE_DEFINITION_REPRESENTATION ( #176, #227 ) ;
#86 = ADVANCED_FACE ( 'NONE', ( #313 ), #319, .F. ) ;
#87 = CYLINDRICAL_SURFACE ( 'NONE', #18, 3.199999999999998845 ) ;
#88 = CYLINDRICAL_SURFACE ( 'NONE', #25, 3.199999999999994404 ) ;
#89 = CALENDAR_DATE ( 2021, 3, 9 ) ;
#90 = CARTESIAN_POINT ( 'NONE',  ( 6.713259643457529835E-15, -3.199999999999993960, 1.922753980888209258 ) ) ;
#91 = CARTESIAN_POINT ( 'NONE',  ( 3.918869757271510246E-16, -3.199999999999994404, -3.918869757271537363E-16 ) ) ;
#92 = VERTEX_POINT ( 'NONE', #291 ) ;
#93 =( LENGTH_UNIT ( ) NAMED_UNIT ( * ) SI_UNIT ( .MILLI., .METRE. ) );
#94 = AXIS2_PLACEMENT_3D ( 'NONE', #232, #317, #252 ) ;
#95 = PRODUCT_DEFINITION ( 'UNKNOWN', '', #295, #173 ) ;
#96 = DIRECTION ( 'NONE',  ( -3.491481338843133355E-15, 1.224646799147353207E-16, -1.000000000000000000 ) ) ;
#97 = SECURITY_CLASSIFICATION_LEVEL ( 'unclassified' ) ;
#98 = CLOSED_SHELL ( 'NONE', ( #245, #46, #1, #297, #134, #86 ) ) ;
#99 = AXIS2_PLACEMENT_3D ( 'NONE', #157, #167, #171 ) ;
#100 = ORIENTED_EDGE ( 'NONE', *, *, #65, .F. ) ;
#101 = FACE_OUTER_BOUND ( 'NONE', #206, .T. ) ;
#102 = CARTESIAN_POINT ( 'NONE',  ( 6.713259643457529835E-15, -3.199999999999993960, 1.922753980888209258 ) ) ;
#103 = ORIENTED_EDGE ( 'NONE', *, *, #65, .T. ) ;
#104 = ORIENTED_EDGE ( 'NONE', *, *, #264, .T. ) ;
#105 = DIRECTION ( 'NONE',  ( -3.491481338843133355E-15, 1.224646799147353207E-16, -1.000000000000000000 ) ) ;
#106 = EDGE_CURVE ( 'NONE', #318, #304, #294, .T. ) ;
#107 = CARTESIAN_POINT ( 'NONE',  ( 2.419596567818291352E-13, 3.199999999999992628, 69.29999999999999716 ) ) ;
#108 = ORIENTED_EDGE ( 'NONE', *, *, #327, .F. ) ;
#109 = EDGE_CURVE ( 'NONE', #191, #15, #45, .T. ) ;
#110 = VERTEX_POINT ( 'NONE', #102 ) ;
#111 = AXIS2_PLACEMENT_3D ( 'NONE', #246, #336, #21 ) ;
#112 = DIRECTION ( 'NONE',  ( 1.000000000000000000, 0.0000000000000000000, 0.0000000000000000000 ) ) ;
#113 = APPLICATION_CONTEXT ( 'configuration controlled 3d designs of mechanical parts and assemblies' ) ;
#114 = DIRECTION ( 'NONE',  ( 4.275831445896958607E-31, 1.000000000000000000, 1.224646799147353207E-16 ) ) ;
#115 = ORIENTED_EDGE ( 'NONE', *, *, #14, .F. ) ;
#116 = DIRECTION ( 'NONE',  ( -2.382254525458727330E-15, -0.7071067811865443531, -0.7071067811865506814 ) ) ;
#117 = VECTOR ( 'NONE', #83, 1000.000000000000114 ) ;
#118 = EDGE_CURVE ( 'NONE', #49, #191, #302, .T. ) ;
#119 = CC_DESIGN_PERSON_AND_ORGANIZATION_ASSIGNMENT ( #233, #156, ( #180 ) ) ;
#120 = VECTOR ( 'NONE', #4, 1000.000000000000000 ) ;
#121 = DIRECTION ( 'NONE',  ( -3.491481338843133355E-15, 1.224646799147353207E-16, -1.000000000000000000 ) ) ;
#122 = COORDINATED_UNIVERSAL_TIME_OFFSET ( 1, 0, .AHEAD. ) ;
#123 = CARTESIAN_POINT ( 'NONE',  ( 8.030407079339205455E-14, 3.199999999999993072, 23.00000000000000000 ) ) ;
#124 = VECTOR ( 'NONE', #299, 1000.000000000000000 ) ;
#125 = AXIS2_PLACEMENT_3D ( 'NONE', #325, #105, #207 ) ;
#126 = CC_DESIGN_APPROVAL ( #19, ( #295 ) ) ;
#127 = EDGE_CURVE ( 'NONE', #318, #288, #292, .T. ) ;
#128 = FACE_OUTER_BOUND ( 'NONE', #315, .T. ) ;
#129 = VECTOR ( 'NONE', #77, 1000.000000000000000 ) ;
#130 = VECTOR ( 'NONE', #216, 1000.000000000000000 ) ;
#131 = DIRECTION ( 'NONE',  ( 0.0000000000000000000, 1.000000000000000000, 0.0000000000000000000 ) ) ;
#132 = VERTEX_POINT ( 'NONE', #335 ) ;
#133 = APPROVAL_DATE_TIME ( #80, #170 ) ;
#134 = ADVANCED_FACE ( 'NONE', ( #101 ), #50, .T. ) ;
#135 = DIRECTION ( 'NONE',  ( -3.491481338843133355E-15, 1.224646799147353207E-16, -1.000000000000000000 ) ) ;
#136 = DIRECTION ( 'NONE',  ( 0.0000000000000000000, 1.000000000000000000, 0.0000000000000000000 ) ) ;
#137 = PERSON_AND_ORGANIZATION ( #289, #147 ) ;
#138 = SECURITY_CLASSIFICATION ( '', '', #97 ) ;
#139 = ORIENTED_EDGE ( 'NONE', *, *, #327, .T. ) ;
#140 = APPROVAL_DATE_TIME ( #247, #32 ) ;
#141 = ORIENTED_EDGE ( 'NONE', *, *, #109, .T. ) ;
#142 = ADVANCED_FACE ( 'NONE', ( #128 ), #234, .T. ) ;
#143 = DIRECTION ( 'NONE',  ( 3.491481338843133355E-15, -1.224646799147353207E-16, 1.000000000000000000 ) ) ;
#144 = CONICAL_SURFACE ( 'NONE', #12, 3.199999999999993516, 1.029744258676649871 ) ;
#145 = DIRECTION ( 'NONE',  ( -4.814824860968099267E-31, -1.000000000000000000, -1.355252715606883254E-16 ) ) ;
#146 = PRODUCT_RELATED_PRODUCT_CATEGORY ( 'detail', '', ( #180 ) ) ;
#147 = ORGANIZATION ( 'UNSPECIFIED', 'UNSPECIFIED', '' ) ;
#148 = CARTESIAN_POINT ( 'NONE',  ( 2.444036937190193601E-13, -8.572527594031472993E-15, 70.00000000000000000 ) ) ;
#149 = COORDINATED_UNIVERSAL_TIME_OFFSET ( 1, 0, .AHEAD. ) ;
#150 = ORIENTED_EDGE ( 'NONE', *, *, #118, .T. ) ;
#151 = AXIS2_PLACEMENT_3D ( 'NONE', #2, #54, #23 ) ;
#152 = MECHANICAL_CONTEXT ( 'NONE', #113, 'mechanical' ) ;
#153 = CARTESIAN_POINT ( 'NONE',  ( 1.368266062687026264E-30, 3.199999999999998845, 3.918869757271528981E-16 ) ) ;
#154 = ADVANCED_FACE ( 'NONE', ( #220 ), #144, .T. ) ;
#155 = ORIENTED_EDGE ( 'NONE', *, *, #79, .T. ) ;
#156 = PERSON_AND_ORGANIZATION_ROLE ( 'design_owner' ) ;
#157 = CARTESIAN_POINT ( 'NONE',  ( 8.030407079339205455E-14, -2.816687638038912352E-15, 23.00000000000000000 ) ) ;
#158 = COORDINATED_UNIVERSAL_TIME_OFFSET ( 1, 0, .AHEAD. ) ;
#159 = AXIS2_PLACEMENT_3D ( 'NONE', #36, #8, #199 ) ;
#160 = CC_DESIGN_APPROVAL ( #170, ( #138 ) ) ;
#161 = EDGE_CURVE ( 'NONE', #304, #318, #41, .T. ) ;
#162 = LINE ( 'NONE', #91, #124 ) ;
#163 = ORIENTED_EDGE ( 'NONE', *, *, #182, .T. ) ;
#164 = LINE ( 'NONE', #35, #178 ) ;
#165 = MANIFOLD_SOLID_BREP ( 'Corps-Déplacer/Copier1[1]', #98 ) ;
#166 = ORIENTED_EDGE ( 'NONE', *, *, #241, .T. ) ;
#167 = DIRECTION ( 'NONE',  ( -3.491481338843133355E-15, 1.224646799147353207E-16, -1.000000000000000000 ) ) ;
#168 = COORDINATED_UNIVERSAL_TIME_OFFSET ( 1, 0, .AHEAD. ) ;
#169 = CARTESIAN_POINT ( 'NONE',  ( 4.390055219415192423E-14, -3.199999999999998401, 23.00000000000000000 ) ) ;
#170 = APPROVAL ( #268, 'UNSPECIFIED' ) ;
#171 = DIRECTION ( 'NONE',  ( 0.0000000000000000000, 1.000000000000000000, 0.0000000000000000000 ) ) ;
#172 = EDGE_CURVE ( 'NONE', #191, #49, #239, .T. ) ;
#173 = DESIGN_CONTEXT ( 'detailed design', #64, 'design' ) ;
#174 = CARTESIAN_POINT ( 'NONE',  ( 6.713259643457531412E-15, -2.354694508242577436E-16, 1.922753980888209702 ) ) ;
#175 = PERSON_AND_ORGANIZATION_ROLE ( 'design_supplier' ) ;
#176 = PRODUCT_DEFINITION_SHAPE ( 'NONE', 'NONE',  #95 ) ;
#177 = CARTESIAN_POINT ( 'NONE',  ( 2.444036937190193601E-13, -8.572527594031472993E-15, 70.00000000000000000 ) ) ;
#178 = VECTOR ( 'NONE', #116, 1000.000000000000000 ) ;
#179 = APPROVAL_DATE_TIME ( #43, #19 ) ;
#180 = PRODUCT ( '42171', '42171', '', ( #152 ) ) ;
#181 = ORIENTED_EDGE ( 'NONE', *, *, #127, .T. ) ;
#182 = EDGE_CURVE ( 'NONE', #110, #15, #248, .T. ) ;
#183 = AXIS2_PLACEMENT_3D ( 'NONE', #40, #143, #251 ) ;
#184 = ORIENTED_EDGE ( 'NONE', *, *, #106, .F. ) ;
#185 = CARTESIAN_POINT ( 'NONE',  ( 2.444036937190193601E-13, 1.874699728327309967E-32, 70.00000000000000000 ) ) ;
#186 = DIRECTION ( 'NONE',  ( 4.275831445896958607E-31, 1.000000000000000000, 1.224646799147353207E-16 ) ) ;
#187 = ORIENTED_EDGE ( 'NONE', *, *, #330, .T. ) ;
#188 = EDGE_LOOP ( 'NONE', ( #184, #212 ) ) ;
#189 = CC_DESIGN_PERSON_AND_ORGANIZATION_ASSIGNMENT ( #305, #223, ( #295 ) ) ;
#190 = CARTESIAN_POINT ( 'NONE',  ( 0.0000000000000000000, 0.0000000000000000000, 0.0000000000000000000 ) ) ;
#191 = VERTEX_POINT ( 'NONE', #123 ) ;
#192 = VECTOR ( 'NONE', #203, 1000.000000000000000 ) ;
#193 =( NAMED_UNIT ( * ) PLANE_ANGLE_UNIT ( ) SI_UNIT ( $, .RADIAN. ) );
#194 = ADVANCED_FACE ( 'NONE', ( #269 ), #88, .T. ) ;
#195 = AXIS2_PLACEMENT_3D ( 'NONE', #84, #215, #58 ) ;
#196 = CIRCLE ( 'NONE', #229, 3.200000000000001510 ) ;
#197 = CARTESIAN_POINT ( 'NONE',  ( 2.444036937190193601E-13, 2.499999999999992895, 70.00000000000000000 ) ) ;
#198 = PERSON_AND_ORGANIZATION_ROLE ( 'classification_officer' ) ;
#199 = DIRECTION ( 'NONE',  ( 4.275831445896958607E-31, 1.000000000000000000, 1.224646799147353207E-16 ) ) ;
#200 = CC_DESIGN_PERSON_AND_ORGANIZATION_ASSIGNMENT ( #63, #175, ( #295 ) ) ;
#201 = DIRECTION ( 'NONE',  ( 0.0000000000000000000, 1.000000000000000000, 0.0000000000000000000 ) ) ;
#202 = DIRECTION ( 'NONE',  ( 4.275831445896958607E-31, 1.000000000000000000, 1.224646799147353207E-16 ) ) ;
#203 = DIRECTION ( 'NONE',  ( -3.491481338843133355E-15, 1.224646799147353207E-16, -1.000000000000000000 ) ) ;
#204 = ADVANCED_FACE ( 'NONE', ( #307 ), #261, .T. ) ;
#205 = VERTEX_POINT ( 'NONE', #331 ) ;
#206 = EDGE_LOOP ( 'NONE', ( #108, #70, #181, #38 ) ) ;
#207 = DIRECTION ( 'NONE',  ( 0.0000000000000000000, 1.000000000000000000, 0.0000000000000000000 ) ) ;
#208 = PERSON_AND_ORGANIZATION ( #289, #147 ) ;
#209 = FACE_OUTER_BOUND ( 'NONE', #20, .T. ) ;
#210 = CIRCLE ( 'NONE', #111, 3.199999999999995737 ) ;
#211 = AXIS2_PLACEMENT_3D ( 'NONE', #271, #42, #265 ) ;
#212 = ORIENTED_EDGE ( 'NONE', *, *, #161, .F. ) ;
#213 = DIRECTION ( 'NONE',  ( 0.0000000000000000000, 1.000000000000000000, 0.0000000000000000000 ) ) ;
#214 = CYLINDRICAL_SURFACE ( 'NONE', #159, 3.199999999999994404 ) ;
#215 = DIRECTION ( 'NONE',  ( 3.491481338843133355E-15, -1.224646799147353207E-16, 1.000000000000000000 ) ) ;
#216 = DIRECTION ( 'NONE',  ( 1.798245827342159528E-15, -0.8571673007021100021, 0.5150380749100580413 ) ) ;
#217 = AXIS2_PLACEMENT_3D ( 'NONE', #263, #219, #296 ) ;
#218 = LOCAL_TIME ( 9, 22, 21.00000000000000000, #76 ) ;
#219 = DIRECTION ( 'NONE',  ( -3.491481338843133355E-15, 1.224646799147353207E-16, -1.000000000000000000 ) ) ;
#220 = FACE_OUTER_BOUND ( 'NONE', #231, .T. ) ;
#221 = CARTESIAN_POINT ( 'NONE',  ( 2.444036937190193601E-13, 2.499999999999992895, 70.00000000000000000 ) ) ;
#222 = EDGE_LOOP ( 'NONE', ( #242, #104, #253, #60 ) ) ;
#223 = PERSON_AND_ORGANIZATION_ROLE ( 'creator' ) ;
#224 = APPROVAL_ROLE ( '' ) ;
#225 = CALENDAR_DATE ( 2021, 3, 9 ) ;
#226 = DIRECTION ( 'NONE',  ( -3.491481338843133355E-15, 1.224646799147353207E-16, -1.000000000000000000 ) ) ;
#227 = ADVANCED_BREP_SHAPE_REPRESENTATION ( '42171', ( #165, #282, #68 ), #51 ) ;
#228 = AXIS2_PLACEMENT_3D ( 'NONE', #148, #226, #44 ) ;
#229 = AXIS2_PLACEMENT_3D ( 'NONE', #3, #55, #213 ) ;
#230 = ORIENTED_EDGE ( 'NONE', *, *, #320, .F. ) ;
#231 = EDGE_LOOP ( 'NONE', ( #337, #187, #163 ) ) ;
#232 = CARTESIAN_POINT ( 'NONE',  ( 6.713259643457531412E-15, -2.354694508242577436E-16, 1.922753980888209702 ) ) ;
#233 = PERSON_AND_ORGANIZATION ( #289, #147 ) ;
#234 = PLANE ( 'NONE',  #16 ) ;
#235 = CC_DESIGN_PERSON_AND_ORGANIZATION_ASSIGNMENT ( #48, #198, ( #138 ) ) ;
#236 = ORIENTED_EDGE ( 'NONE', *, *, #127, .F. ) ;
#237 = CARTESIAN_POINT ( 'NONE',  ( 0.0000000000000000000, 0.0000000000000000000, 0.0000000000000000000 ) ) ;
#238 = CARTESIAN_POINT ( 'NONE',  ( 7.105146619184685149E-15, 3.199999999999993072, 1.922753980888210146 ) ) ;
#239 = CIRCLE ( 'NONE', #81, 3.199999999999995737 ) ;
#240 = CC_DESIGN_APPROVAL ( #32, ( #95 ) ) ;
#241 = EDGE_CURVE ( 'NONE', #205, #288, #273, .T. ) ;
#242 = ORIENTED_EDGE ( 'NONE', *, *, #301, .T. ) ;
#243 = LINE ( 'NONE', #279, #192 ) ;
#244 = ORIENTED_EDGE ( 'NONE', *, *, #109, .F. ) ;
#245 = ADVANCED_FACE ( 'NONE', ( #28 ), #272, .T. ) ;
#246 = CARTESIAN_POINT ( 'NONE',  ( 8.030407079339205455E-14, -2.816687638038912352E-15, 23.00000000000000000 ) ) ;
#247 = DATE_AND_TIME ( #29, #218 ) ;
#248 = CIRCLE ( 'NONE', #94, 3.199999999999993516 ) ;
#249 = FACE_OUTER_BOUND ( 'NONE', #222, .T. ) ;
#250 = DIRECTION ( 'NONE',  ( 0.0000000000000000000, 1.000000000000000000, 0.0000000000000000000 ) ) ;
#251 = DIRECTION ( 'NONE',  ( -4.814824860968099267E-31, -1.000000000000000000, -1.355252715606883254E-16 ) ) ;
#252 = DIRECTION ( 'NONE',  ( 4.814824860968099267E-31, 1.000000000000000000, 1.355252715606883254E-16 ) ) ;
#253 = ORIENTED_EDGE ( 'NONE', *, *, #306, .F. ) ;
#254 = CLOSED_SHELL ( 'NONE', ( #22, #204, #154, #194, #142 ) ) ;
#255 = LOCAL_TIME ( 9, 22, 21.00000000000000000, #158 ) ;
#256 = EDGE_LOOP ( 'NONE', ( #115, #150, #141, #71 ) ) ;
#257 = PERSON_AND_ORGANIZATION ( #289, #147 ) ;
#258 = CC_DESIGN_PERSON_AND_ORGANIZATION_ASSIGNMENT ( #137, #326, ( #95 ) ) ;
#259 = APPLICATION_PROTOCOL_DEFINITION ( 'international standard', 'config_control_design', 1994, #64 ) ;
#260 = CARTESIAN_POINT ( 'NONE',  ( 2.444036937190193601E-13, -8.572527594031472993E-15, 70.00000000000000000 ) ) ;
#261 = CONICAL_SURFACE ( 'NONE', #183, 3.199999999999993516, 1.029744258676649871 ) ;
#262 = LOCAL_TIME ( 9, 22, 21.00000000000000000, #168 ) ;
#263 = CARTESIAN_POINT ( 'NONE',  ( 0.0000000000000000000, 0.0000000000000000000, 0.0000000000000000000 ) ) ;
#264 = EDGE_CURVE ( 'NONE', #205, #62, #243, .T. ) ;
#265 = DIRECTION ( 'NONE',  ( 4.814824860968099267E-31, 1.000000000000000000, 1.355252715606883254E-16 ) ) ;
#266 = ORIENTED_EDGE ( 'NONE', *, *, #14, .T. ) ;
#267 = AXIS2_PLACEMENT_3D ( 'NONE', #177, #96, #250 ) ;
#268 = APPROVAL_STATUS ( 'not_yet_approved' ) ;
#269 = FACE_OUTER_BOUND ( 'NONE', #256, .T. ) ;
#270 = CARTESIAN_POINT ( 'NONE',  ( 1.615237507633376792E-13, -3.199999999999998401, 23.00000000000000000 ) ) ;
#271 = CARTESIAN_POINT ( 'NONE',  ( 6.713259643457531412E-15, -2.354694508242577436E-16, 1.922753980888209702 ) ) ;
#272 = CONICAL_SURFACE ( 'NONE', #30, 2.500000000000001332, 0.7853981633974439491 ) ;
#273 = CIRCLE ( 'NONE', #125, 3.200000000000001510 ) ;
#274 = CC_DESIGN_SECURITY_CLASSIFICATION ( #138, ( #295 ) ) ;
#275 =( NAMED_UNIT ( * ) SI_UNIT ( $, .STERADIAN. ) SOLID_ANGLE_UNIT ( ) );
#276 = CARTESIAN_POINT ( 'NONE',  ( 8.030407079339205455E-14, -2.816687638038912352E-15, 23.00000000000000000 ) ) ;
#277 = CALENDAR_DATE ( 2021, 3, 9 ) ;
#278 = DIRECTION ( 'NONE',  ( 3.491481338843133355E-15, -1.224646799147353207E-16, 1.000000000000000000 ) ) ;
#279 = CARTESIAN_POINT ( 'NONE',  ( 3.918869757271515669E-16, -3.199999999999998845, -3.918869757271542293E-16 ) ) ;
#280 = CARTESIAN_POINT ( 'NONE',  ( 1.368266062687024337E-30, 3.199999999999994404, 3.918869757271523558E-16 ) ) ;
#281 = CC_DESIGN_DATE_AND_TIME_ASSIGNMENT ( #283, #47, ( #138 ) ) ;
#282 = MANIFOLD_SOLID_BREP ( 'Corps-Déplacer/Copier1[2]', #254 ) ;
#283 = DATE_AND_TIME ( #225, #334 ) ;
#284 = DIRECTION ( 'NONE',  ( 0.0000000000000000000, 0.0000000000000000000, 1.000000000000000000 ) ) ;
#285 = AXIS2_PLACEMENT_3D ( 'NONE', #185, #78, #186 ) ;
#286 = APPROVAL_PERSON_ORGANIZATION ( #257, #32, #314 ) ;
#287 = DIRECTION ( 'NONE',  ( -3.491481338843133355E-15, 1.224646799147353207E-16, -1.000000000000000000 ) ) ;
#288 = VERTEX_POINT ( 'NONE', #107 ) ;
#289 = PERSON ( 'UNSPECIFIED', 'UNSPECIFIED', 'UNSPECIFIED', ('UNSPECIFIED'), ('UNSPECIFIED'), ('UNSPECIFIED') ) ;
#290 = EDGE_CURVE ( 'NONE', #92, #15, #10, .T. ) ;
#291 = CARTESIAN_POINT ( 'NONE',  ( 0.0000000000000000000, 0.0000000000000000000, 0.0000000000000000000 ) ) ;
#292 = LINE ( 'NONE', #197, #129 ) ;
#293 = ORIENTED_EDGE ( 'NONE', *, *, #106, .T. ) ;
#294 = CIRCLE ( 'NONE', #267, 2.500000000000001332 ) ;
#295 = PRODUCT_DEFINITION_FORMATION_WITH_SPECIFIED_SOURCE ( 'ANY', '', #180, .NOT_KNOWN. ) ;
#296 = DIRECTION ( 'NONE',  ( 4.275831445896958607E-31, 1.000000000000000000, 1.224646799147353207E-16 ) ) ;
#297 = ADVANCED_FACE ( 'NONE', ( #56 ), #87, .T. ) ;
#298 = DATE_AND_TIME ( #89, #262 ) ;
#299 = DIRECTION ( 'NONE',  ( -3.491481338843133355E-15, 1.224646799147353207E-16, -1.000000000000000000 ) ) ;
#300 = DIRECTION ( 'NONE',  ( -3.491481338843133355E-15, 1.224646799147353207E-16, -1.000000000000000000 ) ) ;
#301 = EDGE_CURVE ( 'NONE', #288, #205, #196, .T. ) ;
#302 = CIRCLE ( 'NONE', #67, 3.199999999999995737 ) ;
#303 = CIRCLE ( 'NONE', #211, 3.199999999999993516 ) ;
#304 = VERTEX_POINT ( 'NONE', #324 ) ;
#305 = PERSON_AND_ORGANIZATION ( #289, #147 ) ;
#306 = EDGE_CURVE ( 'NONE', #132, #62, #26, .T. ) ;
#307 = FACE_OUTER_BOUND ( 'NONE', #309, .T. ) ;
#308 = APPROVAL_STATUS ( 'not_yet_approved' ) ;
#309 = EDGE_LOOP ( 'NONE', ( #34, #27, #329 ) ) ;
#310 = ORIENTED_EDGE ( 'NONE', *, *, #301, .F. ) ;
#311 = EDGE_LOOP ( 'NONE', ( #5, #166, #155, #100 ) ) ;
#312 = CC_DESIGN_DATE_AND_TIME_ASSIGNMENT ( #298, #37, ( #95 ) ) ;
#313 = FACE_OUTER_BOUND ( 'NONE', #188, .T. ) ;
#314 = APPROVAL_ROLE ( '' ) ;
#315 = EDGE_LOOP ( 'NONE', ( #11, #9 ) ) ;
#316 = CALENDAR_DATE ( 2021, 3, 9 ) ;
#317 = DIRECTION ( 'NONE',  ( -3.491481338843133355E-15, 1.224646799147353207E-16, -1.000000000000000000 ) ) ;
#318 = VERTEX_POINT ( 'NONE', #221 ) ;
#319 = PLANE ( 'NONE',  #285 ) ;
#320 = EDGE_CURVE ( 'NONE', #15, #110, #303, .T. ) ;
#321 = VECTOR ( 'NONE', #333, 1000.000000000000000 ) ;
#322 = PLANE ( 'NONE',  #195 ) ;
#323 = APPROVAL_PERSON_ORGANIZATION ( #328, #19, #224 ) ;
#324 = CARTESIAN_POINT ( 'NONE',  ( 2.435306995881813097E-13, -2.500000000000010214, 70.00000000000000000 ) ) ;
#325 = CARTESIAN_POINT ( 'NONE',  ( 2.419596567818291352E-13, -8.486802318091157127E-15, 69.29999999999999716 ) ) ;
#326 = PERSON_AND_ORGANIZATION_ROLE ( 'creator' ) ;
#327 = EDGE_CURVE ( 'NONE', #304, #205, #164, .T. ) ;
#328 = PERSON_AND_ORGANIZATION ( #289, #147 ) ;
#329 = ORIENTED_EDGE ( 'NONE', *, *, #320, .T. ) ;
#330 = EDGE_CURVE ( 'NONE', #92, #110, #31, .T. ) ;
#331 = CARTESIAN_POINT ( 'NONE',  ( 1.615237507633375782E-13, -3.200000000000009948, 69.29999999999999716 ) ) ;
#332 = CARTESIAN_POINT ( 'NONE',  ( 8.030407079339205455E-14, -2.816687638038912352E-15, 23.00000000000000000 ) ) ;
#333 = DIRECTION ( 'NONE',  ( -3.491481338843133355E-15, 1.224646799147353207E-16, -1.000000000000000000 ) ) ;
#334 = LOCAL_TIME ( 9, 22, 21.00000000000000000, #122 ) ;
#335 = CARTESIAN_POINT ( 'NONE',  ( 8.030407079339205455E-14, 3.199999999999993072, 23.00000000000000000 ) ) ;
#336 = DIRECTION ( 'NONE',  ( -3.491481338843133355E-15, 1.224646799147353207E-16, -1.000000000000000000 ) ) ;
#337 = ORIENTED_EDGE ( 'NONE', *, *, #290, .F. ) ;
ENDSEC;
END-ISO-10303-21;
