ISO-10303-21;
HEADER;
FILE_DESCRIPTION (( 'STEP AP203' ),
    '1' );
FILE_NAME ('42140.step',
    '2021-10-15T13:34:51',
    ( '' ),
    ( '' ),
    'SwSTEP 2.0',
    'SolidWorks 2019',
    '' );
FILE_SCHEMA (( 'CONFIG_CONTROL_DESIGN' ));
ENDSEC;

DATA;
#1 = SHAPE_DEFINITION_REPRESENTATION ( #59, #62 ) ;
#2 = EDGE_CURVE ( 'NONE', #110, #110, #164, .T. ) ;
#3 = APPLICATION_CONTEXT ( 'configuration controlled 3d designs of mechanical parts and assemblies' ) ;
#4 = ORIENTED_EDGE ( 'NONE', *, *, #35, .T. ) ;
#5 = ADVANCED_FACE ( 'NONE', ( #167 ), #183, .F. ) ;
#6 = ORIENTED_EDGE ( 'NONE', *, *, #163, .T. ) ;
#7 = AXIS2_PLACEMENT_3D ( 'NONE', #201, #53, #86 ) ;
#8 = CARTESIAN_POINT ( 'NONE',  ( 1.501336975702547217E-13, -5.265981236333618470E-15, 43.00000000000000000 ) ) ;
#9 = ORIENTED_EDGE ( 'NONE', *, *, #163, .F. ) ;
#10 = CARTESIAN_POINT ( 'NONE',  ( 0.0000000000000000000, 0.0000000000000000000, 0.0000000000000000000 ) ) ;
#11 = DIRECTION ( 'NONE',  ( -3.491481338843133355E-15, 1.224646799147353207E-16, -1.000000000000000000 ) ) ;
#12 = SECURITY_CLASSIFICATION ( '', '', #165 ) ;
#13 = ADVANCED_FACE ( 'NONE', ( #150, #151 ), #106, .T. ) ;
#14 = CARTESIAN_POINT ( 'NONE',  ( 1.652033865085267817E-15, -5.794554770927277828E-17, 0.4731613045460675848 ) ) ;
#15 = FACE_OUTER_BOUND ( 'NONE', #117, .T. ) ;
#16 = CARTESIAN_POINT ( 'NONE',  ( 4.888073874380386697E-14, -1.714505518806294638E-15, 14.00000000000000000 ) ) ;
#17 = PERSON_AND_ORGANIZATION_ROLE ( 'design_owner' ) ;
#18 = AXIS2_PLACEMENT_3D ( 'NONE', #187, #92, #195 ) ;
#19 = DATE_AND_TIME ( #130, #156 ) ;
#20 = ORGANIZATION ( 'UNSPECIFIED', 'UNSPECIFIED', '' ) ;
#21 = PERSON_AND_ORGANIZATION_ROLE ( 'creator' ) ;
#22 = CARTESIAN_POINT ( 'NONE',  ( 1.501336975702547217E-13, 7.123858967643748372E-33, 43.00000000000000000 ) ) ;
#23 = APPLICATION_CONTEXT ( 'configuration controlled 3d designs of mechanical parts and assemblies' ) ;
#24 = EDGE_CURVE ( 'NONE', #28, #28, #89, .T. ) ;
#25 = AXIS2_PLACEMENT_3D ( 'NONE', #14, #154, #172 ) ;
#26 = CARTESIAN_POINT ( 'NONE',  ( 1.652033865085267817E-15, -5.794554770927277828E-17, 0.4731613045460675848 ) ) ;
#27 = DIRECTION ( 'NONE',  ( 0.0000000000000000000, 1.000000000000000000, 0.0000000000000000000 ) ) ;
#28 = VERTEX_POINT ( 'NONE', #90 ) ;
#29 =( NAMED_UNIT ( * ) PLANE_ANGLE_UNIT ( ) SI_UNIT ( $, .RADIAN. ) );
#30 = CARTESIAN_POINT ( 'NONE',  ( 1.489116791016596092E-13, -5.223118598363460537E-15, 42.64999999999999147 ) ) ;
#31 = PERSON_AND_ORGANIZATION_ROLE ( 'creator' ) ;
#32 = AXIS2_PLACEMENT_3D ( 'NONE', #26, #109, #56 ) ;
#33 = PERSON_AND_ORGANIZATION ( #40, #20 ) ;
#34 = COORDINATED_UNIVERSAL_TIME_OFFSET ( 1, 0, .AHEAD. ) ;
#35 = EDGE_CURVE ( 'NONE', #125, #125, #177, .T. ) ;
#36 = APPROVAL_PERSON_ORGANIZATION ( #178, #98, #190 ) ;
#37 = ORIENTED_EDGE ( 'NONE', *, *, #24, .T. ) ;
#38 =( GEOMETRIC_REPRESENTATION_CONTEXT ( 3 ) GLOBAL_UNCERTAINTY_ASSIGNED_CONTEXT ( ( #96 ) ) GLOBAL_UNIT_ASSIGNED_CONTEXT ( ( #107, #29, #171 ) ) REPRESENTATION_CONTEXT ( 'NONE', 'WORKASPACE' ) );
#39 = DIRECTION ( 'NONE',  ( -3.491481338843133355E-15, 1.224646799147353207E-16, -1.000000000000000000 ) ) ;
#40 = PERSON ( 'UNSPECIFIED', 'UNSPECIFIED', 'UNSPECIFIED', ('UNSPECIFIED'), ('UNSPECIFIED'), ('UNSPECIFIED') ) ;
#41 = CYLINDRICAL_SURFACE ( 'NONE', #148, 1.299999999999998712 ) ;
#42 = PRODUCT ( '42140', '42140', '', ( #145 ) ) ;
#43 = PLANE ( 'NONE',  #7 ) ;
#44 = CLOSED_SHELL ( 'NONE', ( #103, #143, #119 ) ) ;
#45 = PERSON_AND_ORGANIZATION ( #40, #20 ) ;
#46 = DIRECTION ( 'NONE',  ( 3.491481338843133355E-15, -1.224646799147353207E-16, 1.000000000000000000 ) ) ;
#47 = CALENDAR_DATE ( 2021, 15, 10 ) ;
#48 = APPROVAL_DATE_TIME ( #19, #98 ) ;
#49 = PERSON_AND_ORGANIZATION_ROLE ( 'classification_officer' ) ;
#50 = ORIENTED_EDGE ( 'NONE', *, *, #159, .F. ) ;
#51 = PRODUCT_RELATED_PRODUCT_CATEGORY ( 'detail', '', ( #42 ) ) ;
#52 = EDGE_LOOP ( 'NONE', ( #4 ) ) ;
#53 = DIRECTION ( 'NONE',  ( 3.491481338843133355E-15, -1.224646799147353207E-16, 1.000000000000000000 ) ) ;
#54 = APPROVAL ( #138, 'UNSPECIFIED' ) ;
#55 = LOCAL_TIME ( 15, 34, 51.00000000000000000, #111 ) ;
#56 = DIRECTION ( 'NONE',  ( -4.444453717816714628E-31, -1.000000000000000000, -1.251002506714048224E-16 ) ) ;
#57 = APPROVAL_ROLE ( '' ) ;
#58 = PLANE ( 'NONE',  #197 ) ;
#59 = PRODUCT_DEFINITION_SHAPE ( 'NONE', 'NONE',  #105 ) ;
#60 = PERSON_AND_ORGANIZATION ( #40, #20 ) ;
#61 = DATE_AND_TIME ( #95, #191 ) ;
#62 = ADVANCED_BREP_SHAPE_REPRESENTATION ( '42140', ( #63, #133, #94 ), #38 ) ;
#63 = MANIFOLD_SOLID_BREP ( 'Corps-Déplacer/Copier1[1]', #181 ) ;
#64 = AXIS2_PLACEMENT_3D ( 'NONE', #30, #185, #27 ) ;
#65 = CARTESIAN_POINT ( 'NONE',  ( 4.888073874380386697E-14, -1.714505518806294638E-15, 14.00000000000000000 ) ) ;
#66 = AXIS2_PLACEMENT_3D ( 'NONE', #8, #11, #160 ) ;
#67 = CC_DESIGN_APPROVAL ( #98, ( #12 ) ) ;
#68 = ORIENTED_EDGE ( 'NONE', *, *, #2, .F. ) ;
#69 = DIRECTION ( 'NONE',  ( 0.0000000000000000000, 1.000000000000000000, 0.0000000000000000000 ) ) ;
#70 = APPLICATION_PROTOCOL_DEFINITION ( 'international standard', 'config_control_design', 1994, #3 ) ;
#71 = CC_DESIGN_APPROVAL ( #54, ( #105 ) ) ;
#72 = DIRECTION ( 'NONE',  ( -4.275831445896958607E-31, -1.000000000000000000, -1.224646799147353207E-16 ) ) ;
#73 = CARTESIAN_POINT ( 'NONE',  ( 1.652033865085268409E-15, 1.299999999999995159, 0.4731613045460677514 ) ) ;
#74 = CARTESIAN_POINT ( 'NONE',  ( 1.501336975702547217E-13, -5.265981236333618470E-15, 43.00000000000000000 ) ) ;
#75 = CARTESIAN_POINT ( 'NONE',  ( 4.888073874380386697E-14, 9.748438587302025187E-33, 14.00000000000000000 ) ) ;
#76 = COORDINATED_UNIVERSAL_TIME_OFFSET ( 1, 0, .AHEAD. ) ;
#77 = CC_DESIGN_SECURITY_CLASSIFICATION ( #12, ( #192 ) ) ;
#78 = ADVANCED_FACE ( 'NONE', ( #175, #162 ), #41, .T. ) ;
#79 = DATE_TIME_ROLE ( 'classification_date' ) ;
#80 = AXIS2_PLACEMENT_3D ( 'NONE', #74, #39, #137 ) ;
#81 = DIRECTION ( 'NONE',  ( -3.491481338843133355E-15, 1.224646799147353207E-16, -1.000000000000000000 ) ) ;
#82 = DIRECTION ( 'NONE',  ( -3.491481338843133355E-15, 1.224646799147353207E-16, -1.000000000000000000 ) ) ;
#83 = AXIS2_PLACEMENT_3D ( 'NONE', #65, #82, #132 ) ;
#84 = ORIENTED_EDGE ( 'NONE', *, *, #24, .F. ) ;
#85 = CC_DESIGN_DATE_AND_TIME_ASSIGNMENT ( #123, #186, ( #105 ) ) ;
#86 = DIRECTION ( 'NONE',  ( -4.275831445896958607E-31, -1.000000000000000000, -1.224646799147353207E-16 ) ) ;
#87 = DIRECTION ( 'NONE',  ( 4.275831445896958607E-31, 1.000000000000000000, 1.224646799147353207E-16 ) ) ;
#88 = CALENDAR_DATE ( 2021, 15, 10 ) ;
#89 = CIRCLE ( 'NONE', #64, 1.300000000000000266 ) ;
#90 = CARTESIAN_POINT ( 'NONE',  ( 1.489116791016596092E-13, 1.299999999999994937, 42.64999999999999147 ) ) ;
#91 = APPROVAL_DATE_TIME ( #174, #54 ) ;
#92 = DIRECTION ( 'NONE',  ( -3.491481338843133355E-15, 1.224646799147353207E-16, -1.000000000000000000 ) ) ;
#93 = CALENDAR_DATE ( 2021, 15, 10 ) ;
#94 = AXIS2_PLACEMENT_3D ( 'NONE', #10, #188, #200 ) ;
#95 = CALENDAR_DATE ( 2021, 15, 10 ) ;
#96 = UNCERTAINTY_MEASURE_WITH_UNIT (LENGTH_MEASURE( 1.000000000000000082E-05 ), #107, 'distance_accuracy_value', 'NONE');
#97 = APPROVAL_STATUS ( 'not_yet_approved' ) ;
#98 = APPROVAL ( #179, 'UNSPECIFIED' ) ;
#99 = PERSON_AND_ORGANIZATION ( #40, #20 ) ;
#100 = ORIENTED_EDGE ( 'NONE', *, *, #159, .T. ) ;
#101 = AXIS2_PLACEMENT_3D ( 'NONE', #16, #142, #69 ) ;
#102 = APPROVAL_PERSON_ORGANIZATION ( #108, #113, #203 ) ;
#103 = ADVANCED_FACE ( 'NONE', ( #189 ), #170, .T. ) ;
#104 = DIRECTION ( 'NONE',  ( 4.275831445896958607E-31, 1.000000000000000000, 1.224646799147353207E-16 ) ) ;
#105 = PRODUCT_DEFINITION ( 'UNKNOWN', '', #192, #115 ) ;
#106 = CONICAL_SURFACE ( 'NONE', #66, 0.9500000000000003997, 0.7853981633974435050 ) ;
#107 =( LENGTH_UNIT ( ) NAMED_UNIT ( * ) SI_UNIT ( .MILLI., .METRE. ) );
#108 = PERSON_AND_ORGANIZATION ( #40, #20 ) ;
#109 = DIRECTION ( 'NONE',  ( 3.491481338843133355E-15, -1.224646799147353207E-16, 1.000000000000000000 ) ) ;
#110 = VERTEX_POINT ( 'NONE', #121 ) ;
#111 = COORDINATED_UNIVERSAL_TIME_OFFSET ( 1, 0, .AHEAD. ) ;
#112 = FACE_OUTER_BOUND ( 'NONE', #52, .T. ) ;
#113 = APPROVAL ( #97, 'UNSPECIFIED' ) ;
#114 = COORDINATED_UNIVERSAL_TIME_OFFSET ( 1, 0, .AHEAD. ) ;
#115 = DESIGN_CONTEXT ( 'detailed design', #3, 'design' ) ;
#116 = DATE_AND_TIME ( #47, #128 ) ;
#117 = EDGE_LOOP ( 'NONE', ( #182 ) ) ;
#118 = EDGE_LOOP ( 'NONE', ( #6 ) ) ;
#119 = ADVANCED_FACE ( 'NONE', ( #155 ), #58, .T. ) ;
#120 = EDGE_LOOP ( 'NONE', ( #50 ) ) ;
#121 = CARTESIAN_POINT ( 'NONE',  ( 4.888073874380386697E-14, 1.299999999999995159, 14.00000000000000000 ) ) ;
#122 = APPROVAL_PERSON_ORGANIZATION ( #60, #54, #57 ) ;
#123 = DATE_AND_TIME ( #93, #139 ) ;
#124 = CYLINDRICAL_SURFACE ( 'NONE', #18, 1.299999999999996048 ) ;
#125 = VERTEX_POINT ( 'NONE', #144 ) ;
#126 = CIRCLE ( 'NONE', #25, 1.299999999999995159 ) ;
#127 = APPROVAL_DATE_TIME ( #61, #113 ) ;
#128 = LOCAL_TIME ( 15, 34, 51.00000000000000000, #114 ) ;
#129 = PERSON_AND_ORGANIZATION ( #40, #20 ) ;
#130 = CALENDAR_DATE ( 2021, 15, 10 ) ;
#131 = CC_DESIGN_DATE_AND_TIME_ASSIGNMENT ( #116, #79, ( #12 ) ) ;
#132 = DIRECTION ( 'NONE',  ( 0.0000000000000000000, 1.000000000000000000, 0.0000000000000000000 ) ) ;
#133 = MANIFOLD_SOLID_BREP ( 'Corps-Déplacer/Copier1[2]', #44 ) ;
#134 = EDGE_LOOP ( 'NONE', ( #100 ) ) ;
#135 = CC_DESIGN_APPROVAL ( #113, ( #192 ) ) ;
#136 = EDGE_LOOP ( 'NONE', ( #169 ) ) ;
#137 = DIRECTION ( 'NONE',  ( 0.0000000000000000000, 1.000000000000000000, 0.0000000000000000000 ) ) ;
#138 = APPROVAL_STATUS ( 'not_yet_approved' ) ;
#139 = LOCAL_TIME ( 15, 34, 51.00000000000000000, #76 ) ;
#140 = FACE_OUTER_BOUND ( 'NONE', #120, .T. ) ;
#141 = CC_DESIGN_PERSON_AND_ORGANIZATION_ASSIGNMENT ( #33, #147, ( #192 ) ) ;
#142 = DIRECTION ( 'NONE',  ( -3.491481338843133355E-15, 1.224646799147353207E-16, -1.000000000000000000 ) ) ;
#143 = ADVANCED_FACE ( 'NONE', ( #140, #15 ), #124, .T. ) ;
#144 = CARTESIAN_POINT ( 'NONE',  ( 4.888073874380386697E-14, 1.299999999999995159, 14.00000000000000000 ) ) ;
#145 = MECHANICAL_CONTEXT ( 'NONE', #23, 'mechanical' ) ;
#146 = CC_DESIGN_PERSON_AND_ORGANIZATION_ASSIGNMENT ( #45, #17, ( #42 ) ) ;
#147 = PERSON_AND_ORGANIZATION_ROLE ( 'design_supplier' ) ;
#148 = AXIS2_PLACEMENT_3D ( 'NONE', #198, #196, #87 ) ;
#149 = COORDINATED_UNIVERSAL_TIME_OFFSET ( 1, 0, .AHEAD. ) ;
#150 = FACE_OUTER_BOUND ( 'NONE', #166, .T. ) ;
#151 = FACE_BOUND ( 'NONE', #118, .T. ) ;
#152 = AXIS2_PLACEMENT_3D ( 'NONE', #22, #81, #104 ) ;
#153 = EDGE_LOOP ( 'NONE', ( #37 ) ) ;
#154 = DIRECTION ( 'NONE',  ( -3.491481338843133355E-15, 1.224646799147353207E-16, -1.000000000000000000 ) ) ;
#155 = FACE_OUTER_BOUND ( 'NONE', #193, .T. ) ;
#156 = LOCAL_TIME ( 15, 34, 51.00000000000000000, #34 ) ;
#157 = ADVANCED_FACE ( 'NONE', ( #112 ), #43, .F. ) ;
#158 = VERTEX_POINT ( 'NONE', #73 ) ;
#159 = EDGE_CURVE ( 'NONE', #158, #158, #126, .T. ) ;
#160 = DIRECTION ( 'NONE',  ( 0.0000000000000000000, 1.000000000000000000, 0.0000000000000000000 ) ) ;
#161 = PERSON_AND_ORGANIZATION ( #40, #20 ) ;
#162 = FACE_OUTER_BOUND ( 'NONE', #153, .T. ) ;
#163 = EDGE_CURVE ( 'NONE', #199, #199, #173, .T. ) ;
#164 = CIRCLE ( 'NONE', #83, 1.299999999999996936 ) ;
#165 = SECURITY_CLASSIFICATION_LEVEL ( 'unclassified' ) ;
#166 = EDGE_LOOP ( 'NONE', ( #84 ) ) ;
#167 = FACE_OUTER_BOUND ( 'NONE', #180, .T. ) ;
#168 = CC_DESIGN_PERSON_AND_ORGANIZATION_ASSIGNMENT ( #129, #49, ( #12 ) ) ;
#169 = ORIENTED_EDGE ( 'NONE', *, *, #35, .F. ) ;
#170 = CONICAL_SURFACE ( 'NONE', #32, 1.299999999999995159, 1.221730476396026388 ) ;
#171 =( NAMED_UNIT ( * ) SI_UNIT ( $, .STERADIAN. ) SOLID_ANGLE_UNIT ( ) );
#172 = DIRECTION ( 'NONE',  ( 4.444453717816714628E-31, 1.000000000000000000, 1.251002506714048224E-16 ) ) ;
#173 = CIRCLE ( 'NONE', #80, 0.9500000000000003997 ) ;
#174 = DATE_AND_TIME ( #88, #55 ) ;
#175 = FACE_OUTER_BOUND ( 'NONE', #136, .T. ) ;
#176 = APPLICATION_PROTOCOL_DEFINITION ( 'international standard', 'config_control_design', 1994, #23 ) ;
#177 = CIRCLE ( 'NONE', #101, 1.299999999999996936 ) ;
#178 = PERSON_AND_ORGANIZATION ( #40, #20 ) ;
#179 = APPROVAL_STATUS ( 'not_yet_approved' ) ;
#180 = EDGE_LOOP ( 'NONE', ( #9 ) ) ;
#181 = CLOSED_SHELL ( 'NONE', ( #157, #78, #13, #5 ) ) ;
#182 = ORIENTED_EDGE ( 'NONE', *, *, #2, .T. ) ;
#183 = PLANE ( 'NONE',  #152 ) ;
#184 = CARTESIAN_POINT ( 'NONE',  ( 1.501336975702547217E-13, 0.9499999999999950706, 43.00000000000000000 ) ) ;
#185 = DIRECTION ( 'NONE',  ( -3.491481338843133355E-15, 1.224646799147353207E-16, -1.000000000000000000 ) ) ;
#186 = DATE_TIME_ROLE ( 'creation_date' ) ;
#187 = CARTESIAN_POINT ( 'NONE',  ( 0.0000000000000000000, 0.0000000000000000000, 0.0000000000000000000 ) ) ;
#188 = DIRECTION ( 'NONE',  ( 0.0000000000000000000, 0.0000000000000000000, 1.000000000000000000 ) ) ;
#189 = FACE_OUTER_BOUND ( 'NONE', #134, .T. ) ;
#190 = APPROVAL_ROLE ( '' ) ;
#191 = LOCAL_TIME ( 15, 34, 51.00000000000000000, #149 ) ;
#192 = PRODUCT_DEFINITION_FORMATION_WITH_SPECIFIED_SOURCE ( 'ANY', '', #42, .NOT_KNOWN. ) ;
#193 = EDGE_LOOP ( 'NONE', ( #68 ) ) ;
#194 = CC_DESIGN_PERSON_AND_ORGANIZATION_ASSIGNMENT ( #161, #31, ( #105 ) ) ;
#195 = DIRECTION ( 'NONE',  ( 4.275831445896958607E-31, 1.000000000000000000, 1.224646799147352961E-16 ) ) ;
#196 = DIRECTION ( 'NONE',  ( -3.491481338843133355E-15, 1.224646799147353207E-16, -1.000000000000000000 ) ) ;
#197 = AXIS2_PLACEMENT_3D ( 'NONE', #75, #46, #72 ) ;
#198 = CARTESIAN_POINT ( 'NONE',  ( 0.0000000000000000000, 0.0000000000000000000, 0.0000000000000000000 ) ) ;
#199 = VERTEX_POINT ( 'NONE', #184 ) ;
#200 = DIRECTION ( 'NONE',  ( 1.000000000000000000, 0.0000000000000000000, 0.0000000000000000000 ) ) ;
#201 = CARTESIAN_POINT ( 'NONE',  ( 4.888073874380386697E-14, 9.748438587302025187E-33, 14.00000000000000000 ) ) ;
#202 = CC_DESIGN_PERSON_AND_ORGANIZATION_ASSIGNMENT ( #99, #21, ( #192 ) ) ;
#203 = APPROVAL_ROLE ( '' ) ;
ENDSEC;
END-ISO-10303-21;
