ISO-10303-21;
HEADER;
FILE_DESCRIPTION (( 'STEP AP203' ),
    '1' );
FILE_NAME ('42139.step',
    '2021-09-03T07:22:20',
    ( '' ),
    ( '' ),
    'SwSTEP 2.0',
    'SolidWorks 2019',
    '' );
FILE_SCHEMA (( 'CONFIG_CONTROL_DESIGN' ));
ENDSEC;

DATA;
#1 = ADVANCED_FACE ( 'NONE', ( #234 ), #206, .T. ) ;
#2 = VERTEX_POINT ( 'NONE', #50 ) ;
#3 = COORDINATED_UNIVERSAL_TIME_OFFSET ( 1, 0, .AHEAD. ) ;
#4 = CARTESIAN_POINT ( 'NONE',  ( 5.772372451960879843E-31, 1.349999999999996758, 1.653273178848922922E-16 ) ) ;
#5 = CLOSED_SHELL ( 'NONE', ( #76, #1, #293, #145, #299 ) ) ;
#6 = ORIENTED_EDGE ( 'NONE', *, *, #21, .T. ) ;
#7 = AXIS2_PLACEMENT_3D ( 'NONE', #152, #205, #113 ) ;
#8 = DIRECTION ( 'NONE',  ( -3.491481338843133355E-15, 1.224646799147353207E-16, -1.000000000000000000 ) ) ;
#9 = APPROVAL_ROLE ( '' ) ;
#10 = PRODUCT_RELATED_PRODUCT_CATEGORY ( 'detail', '', ( #337 ) ) ;
#11 = AXIS2_PLACEMENT_3D ( 'NONE', #245, #8, #165 ) ;
#12 = DIRECTION ( 'NONE',  ( 3.491481338843133355E-15, -1.224646799147353207E-16, 1.000000000000000000 ) ) ;
#13 = CC_DESIGN_PERSON_AND_ORGANIZATION_ASSIGNMENT ( #179, #280, ( #337 ) ) ;
#14 = ORIENTED_EDGE ( 'NONE', *, *, #269, .F. ) ;
#15 = DIRECTION ( 'NONE',  ( -3.491481338843133355E-15, 1.224646799147353207E-16, -1.000000000000000000 ) ) ;
#16 = CALENDAR_DATE ( 2021, 3, 9 ) ;
#17 = PERSON_AND_ORGANIZATION ( #156, #277 ) ;
#18 = CIRCLE ( 'NONE', #57, 1.349999999999994760 ) ;
#19 = DIRECTION ( 'NONE',  ( 0.0000000000000000000, 1.000000000000000000, 0.0000000000000000000 ) ) ;
#20 = CONICAL_SURFACE ( 'NONE', #79, 1.049999999999998934, 0.7853981633974569387 ) ;
#21 = EDGE_CURVE ( 'NONE', #2, #193, #120, .T. ) ;
#22 = DIRECTION ( 'NONE',  ( 0.0000000000000000000, 1.000000000000000000, 0.0000000000000000000 ) ) ;
#23 = DIRECTION ( 'NONE',  ( 2.853229547240363506E-31, 1.000000000000000000, 1.606225440719273762E-16 ) ) ;
#24 = CLOSED_SHELL ( 'NONE', ( #311, #202, #121, #106, #301, #249 ) ) ;
#25 = APPROVAL_PERSON_ORGANIZATION ( #178, #153, #324 ) ;
#26 = APPLICATION_CONTEXT ( 'configuration controlled 3d designs of mechanical parts and assemblies' ) ;
#27 = DATE_AND_TIME ( #333, #52 ) ;
#28 = CC_DESIGN_DATE_AND_TIME_ASSIGNMENT ( #81, #61, ( #272 ) ) ;
#29 = ORIENTED_EDGE ( 'NONE', *, *, #177, .F. ) ;
#30 = DIRECTION ( 'NONE',  ( -3.491481338843133355E-15, 1.224646799147353207E-16, -1.000000000000000000 ) ) ;
#31 = EDGE_LOOP ( 'NONE', ( #226, #84, #138, #127 ) ) ;
#32 = AXIS2_PLACEMENT_3D ( 'NONE', #284, #107, #218 ) ;
#33 = DIRECTION ( 'NONE',  ( 0.0000000000000000000, 1.000000000000000000, 0.0000000000000000000 ) ) ;
#34 = FACE_OUTER_BOUND ( 'NONE', #242, .T. ) ;
#35 = ORIENTED_EDGE ( 'NONE', *, *, #219, .F. ) ;
#36 = VERTEX_POINT ( 'NONE', #236 ) ;
#37 = VECTOR ( 'NONE', #168, 1000.000000000000114 ) ;
#38 = APPROVAL_DATE_TIME ( #235, #153 ) ;
#39 = DIRECTION ( 'NONE',  ( -3.491481338843133355E-15, 1.224646799147353207E-16, -1.000000000000000000 ) ) ;
#40 = EDGE_CURVE ( 'NONE', #68, #214, #330, .T. ) ;
#41 = ORIENTED_EDGE ( 'NONE', *, *, #108, .T. ) ;
#42 = DIRECTION ( 'NONE',  ( 2.853229547240363506E-31, 1.000000000000000000, 1.606225440719273762E-16 ) ) ;
#43 = CARTESIAN_POINT ( 'NONE',  ( 2.832156412083637745E-15, -1.349999999999993427, 0.8111618356872110081 ) ) ;
#44 = COORDINATED_UNIVERSAL_TIME_OFFSET ( 1, 0, .AHEAD. ) ;
#45 = EDGE_LOOP ( 'NONE', ( #41, #82 ) ) ;
#46 = CARTESIAN_POINT ( 'NONE',  ( 4.189777606611760026E-14, -1.469576158976823947E-15, 12.00000000000000000 ) ) ;
#47 = ORIENTED_EDGE ( 'NONE', *, *, #269, .T. ) ;
#48 = DIRECTION ( 'NONE',  ( -2.382254525458694593E-15, -0.7071067811865535679, -0.7071067811865415775 ) ) ;
#49 = CALENDAR_DATE ( 2021, 3, 9 ) ;
#50 = CARTESIAN_POINT ( 'NONE',  ( 1.008945639435091263E-13, -1.350000000000004308, 45.70000000000000284 ) ) ;
#51 = EDGE_LOOP ( 'NONE', ( #35, #250, #150 ) ) ;
#52 = LOCAL_TIME ( 9, 22, 20.00000000000000000, #211 ) ;
#53 = EDGE_CURVE ( 'NONE', #174, #68, #141, .T. ) ;
#54 = MANIFOLD_SOLID_BREP ( 'Corps-Déplacer/Copier1[2]', #5 ) ;
#55 = CARTESIAN_POINT ( 'NONE',  ( 2.997483729968530431E-15, 1.349999999999993427, 0.8111618356872114521 ) ) ;
#56 = AXIS2_PLACEMENT_3D ( 'NONE', #124, #72, #180 ) ;
#57 = AXIS2_PLACEMENT_3D ( 'NONE', #329, #95, #74 ) ;
#58 = DIRECTION ( 'NONE',  ( -3.491481338843133355E-15, 1.224646799147353207E-16, -1.000000000000000000 ) ) ;
#59 = DIRECTION ( 'NONE',  ( 4.275831445896958607E-31, 1.000000000000000000, 1.224646799147353207E-16 ) ) ;
#60 = EDGE_LOOP ( 'NONE', ( #65, #175 ) ) ;
#61 = DATE_TIME_ROLE ( 'creation_date' ) ;
#62 = PERSON_AND_ORGANIZATION_ROLE ( 'creator' ) ;
#63 = CC_DESIGN_SECURITY_CLASSIFICATION ( #304, ( #176 ) ) ;
#64 = PERSON_AND_ORGANIZATION ( #156, #277 ) ;
#65 = ORIENTED_EDGE ( 'NONE', *, *, #196, .F. ) ;
#66 = CARTESIAN_POINT ( 'NONE',  ( 0.0000000000000000000, 0.0000000000000000000, 0.0000000000000000000 ) ) ;
#67 = CARTESIAN_POINT ( 'NONE',  ( 0.0000000000000000000, 0.0000000000000000000, 0.0000000000000000000 ) ) ;
#68 = VERTEX_POINT ( 'NONE', #99 ) ;
#69 = DESIGN_CONTEXT ( 'detailed design', #26, 'design' ) ;
#70 = AXIS2_PLACEMENT_3D ( 'NONE', #292, #15, #19 ) ;
#71 = MECHANICAL_CONTEXT ( 'NONE', #186, 'mechanical' ) ;
#72 = DIRECTION ( 'NONE',  ( 3.491481338843133355E-15, -1.224646799147353207E-16, 1.000000000000000000 ) ) ;
#73 = VERTEX_POINT ( 'NONE', #216 ) ;
#74 = DIRECTION ( 'NONE',  ( 0.0000000000000000000, 1.000000000000000000, 0.0000000000000000000 ) ) ;
#75 = CYLINDRICAL_SURFACE ( 'NONE', #123, 1.349999999999994094 ) ;
#76 = ADVANCED_FACE ( 'NONE', ( #305 ), #146, .T. ) ;
#77 = CARTESIAN_POINT ( 'NONE',  ( 1.606081415867841091E-13, -5.633375276077824704E-15, 46.00000000000000000 ) ) ;
#78 = PLANE ( 'NONE',  #232 ) ;
#79 = AXIS2_PLACEMENT_3D ( 'NONE', #331, #263, #223 ) ;
#80 = LINE ( 'NONE', #4, #189 ) ;
#81 = DATE_AND_TIME ( #167, #261 ) ;
#82 = ORIENTED_EDGE ( 'NONE', *, *, #97, .T. ) ;
#83 = EDGE_CURVE ( 'NONE', #36, #332, #274, .T. ) ;
#84 = ORIENTED_EDGE ( 'NONE', *, *, #177, .T. ) ;
#85 = EDGE_LOOP ( 'NONE', ( #321, #133, #231, #14 ) ) ;
#86 = CIRCLE ( 'NONE', #70, 1.349999999999994760 ) ;
#87 = COORDINATED_UNIVERSAL_TIME_OFFSET ( 1, 0, .AHEAD. ) ;
#88 = APPROVAL ( #197, 'UNSPECIFIED' ) ;
#89 = APPROVAL_DATE_TIME ( #319, #132 ) ;
#90 = EDGE_LOOP ( 'NONE', ( #115, #318, #281, #29 ) ) ;
#91 = DIRECTION ( 'NONE',  ( -4.275831445896958607E-31, -1.000000000000000000, -1.224646799147353207E-16 ) ) ;
#92 = COORDINATED_UNIVERSAL_TIME_OFFSET ( 1, 0, .AHEAD. ) ;
#93 = PERSON_AND_ORGANIZATION_ROLE ( 'design_supplier' ) ;
#94 = VECTOR ( 'NONE', #208, 1000.000000000000000 ) ;
#95 = DIRECTION ( 'NONE',  ( -3.491481338843133355E-15, 1.224646799147353207E-16, -1.000000000000000000 ) ) ;
#96 = FACE_OUTER_BOUND ( 'NONE', #85, .T. ) ;
#97 = EDGE_CURVE ( 'NONE', #193, #283, #184, .T. ) ;
#98 = DIRECTION ( 'NONE',  ( -3.491481338843133355E-15, 1.224646799147353207E-16, -1.000000000000000000 ) ) ;
#99 = CARTESIAN_POINT ( 'NONE',  ( 1.606081415867841091E-13, 1.049999999999993161, 46.00000000000000000 ) ) ;
#100 = LINE ( 'NONE', #217, #110 ) ;
#101 = EDGE_LOOP ( 'NONE', ( #260, #6, #335, #109 ) ) ;
#102 = DIRECTION ( 'NONE',  ( 4.275831445896958607E-31, 1.000000000000000000, 1.224646799147353207E-16 ) ) ;
#103 = CARTESIAN_POINT ( 'NONE',  ( 1.008945639435092525E-13, -1.349999999999996314, 12.00000000000000000 ) ) ;
#104 = DIRECTION ( 'NONE',  ( -3.491481338843133355E-15, 1.224646799147353207E-16, -1.000000000000000000 ) ) ;
#105 = CIRCLE ( 'NONE', #129, 1.349999999999993427 ) ;
#106 = ADVANCED_FACE ( 'NONE', ( #279 ), #315, .T. ) ;
#107 = DIRECTION ( 'NONE',  ( 3.491481338843133355E-15, -1.224646799147353207E-16, 1.000000000000000000 ) ) ;
#108 = EDGE_CURVE ( 'NONE', #283, #193, #86, .T. ) ;
#109 = ORIENTED_EDGE ( 'NONE', *, *, #160, .F. ) ;
#110 = VECTOR ( 'NONE', #336, 1000.000000000000000 ) ;
#111 = APPROVAL_STATUS ( 'not_yet_approved' ) ;
#112 = FACE_OUTER_BOUND ( 'NONE', #45, .T. ) ;
#113 = DIRECTION ( 'NONE',  ( 1.000000000000000000, 0.0000000000000000000, 0.0000000000000000000 ) ) ;
#114 = PERSON_AND_ORGANIZATION ( #156, #277 ) ;
#115 = ORIENTED_EDGE ( 'NONE', *, *, #137, .F. ) ;
#116 = CC_DESIGN_APPROVAL ( #132, ( #176 ) ) ;
#117 = DIRECTION ( 'NONE',  ( 4.275831445896958607E-31, 1.000000000000000000, 1.224646799147353207E-16 ) ) ;
#118 = CC_DESIGN_PERSON_AND_ORGANIZATION_ASSIGNMENT ( #151, #169, ( #304 ) ) ;
#119 = VERTEX_POINT ( 'NONE', #43 ) ;
#120 = LINE ( 'NONE', #328, #94 ) ;
#121 = ADVANCED_FACE ( 'NONE', ( #112 ), #251, .F. ) ;
#122 = DIRECTION ( 'NONE',  ( -3.491481338843133355E-15, 1.224646799147353207E-16, -1.000000000000000000 ) ) ;
#123 = AXIS2_PLACEMENT_3D ( 'NONE', #300, #130, #190 ) ;
#124 = CARTESIAN_POINT ( 'NONE',  ( 2.832156412083637745E-15, -9.933867456648344436E-17, 0.8111618356872112301 ) ) ;
#125 = ORIENTED_EDGE ( 'NONE', *, *, #83, .F. ) ;
#126 = ADVANCED_BREP_SHAPE_REPRESENTATION ( '42139', ( #282, #54, #7 ), #248 ) ;
#127 = ORIENTED_EDGE ( 'NONE', *, *, #97, .F. ) ;
#128 = VECTOR ( 'NONE', #48, 1000.000000000000000 ) ;
#129 = AXIS2_PLACEMENT_3D ( 'NONE', #199, #170, #42 ) ;
#130 = DIRECTION ( 'NONE',  ( -3.491481338843133355E-15, 1.224646799147353207E-16, -1.000000000000000000 ) ) ;
#131 = CARTESIAN_POINT ( 'NONE',  ( 1.595606971851312133E-13, -5.596635872103404633E-15, 45.70000000000000284 ) ) ;
#132 = APPROVAL ( #111, 'UNSPECIFIED' ) ;
#133 = ORIENTED_EDGE ( 'NONE', *, *, #327, .T. ) ;
#134 = CIRCLE ( 'NONE', #142, 1.349999999999998757 ) ;
#135 = FACE_OUTER_BOUND ( 'NONE', #101, .T. ) ;
#136 = CARTESIAN_POINT ( 'NONE',  ( 5.772372451960868458E-31, 1.349999999999994094, 1.653273178848919471E-16 ) ) ;
#137 = EDGE_CURVE ( 'NONE', #174, #2, #255, .T. ) ;
#138 = ORIENTED_EDGE ( 'NONE', *, *, #160, .T. ) ;
#139 = PERSON_AND_ORGANIZATION ( #156, #277 ) ;
#140 = DIRECTION ( 'NONE',  ( -2.853229547240363506E-31, -1.000000000000000000, -1.606225440719273762E-16 ) ) ;
#141 = CIRCLE ( 'NONE', #287, 1.049999999999998934 ) ;
#142 = AXIS2_PLACEMENT_3D ( 'NONE', #131, #191, #268 ) ;
#143 = EDGE_LOOP ( 'NONE', ( #247, #233, #47 ) ) ;
#144 = CARTESIAN_POINT ( 'NONE',  ( 4.189777606611760026E-14, 1.349999999999993427, 12.00000000000000000 ) ) ;
#145 = ADVANCED_FACE ( 'NONE', ( #96 ), #75, .T. ) ;
#146 = CYLINDRICAL_SURFACE ( 'NONE', #309, 1.349999999999994094 ) ;
#147 = FACE_OUTER_BOUND ( 'NONE', #90, .T. ) ;
#148 = AXIS2_PLACEMENT_3D ( 'NONE', #163, #30, #33 ) ;
#149 = DIRECTION ( 'NONE',  ( -3.491481338843133355E-15, 1.224646799147353207E-16, -1.000000000000000000 ) ) ;
#150 = ORIENTED_EDGE ( 'NONE', *, *, #314, .T. ) ;
#151 = PERSON_AND_ORGANIZATION ( #156, #277 ) ;
#152 = CARTESIAN_POINT ( 'NONE',  ( 0.0000000000000000000, 0.0000000000000000000, 0.0000000000000000000 ) ) ;
#153 = APPROVAL ( #259, 'UNSPECIFIED' ) ;
#154 = CONICAL_SURFACE ( 'NONE', #171, 1.349999999999993427, 1.029744258676649649 ) ;
#155 = ORIENTED_EDGE ( 'NONE', *, *, #40, .F. ) ;
#156 = PERSON ( 'UNSPECIFIED', 'UNSPECIFIED', 'UNSPECIFIED', ('UNSPECIFIED'), ('UNSPECIFIED'), ('UNSPECIFIED') ) ;
#157 = CARTESIAN_POINT ( 'NONE',  ( 2.832156412083637745E-15, -9.933867456648344436E-17, 0.8111618356872112301 ) ) ;
#158 = LOCAL_TIME ( 9, 22, 20.00000000000000000, #44 ) ;
#159 = DIRECTION ( 'NONE',  ( 1.903218546456022717E-15, 0.8571673007021097801, 0.5150380749100585964 ) ) ;
#160 = EDGE_CURVE ( 'NONE', #214, #283, #80, .T. ) ;
#161 = CARTESIAN_POINT ( 'NONE',  ( 1.602313770018553383E-13, -1.050000000000004485, 46.00000000000000000 ) ) ;
#162 = APPROVAL_DATE_TIME ( #27, #88 ) ;
#163 = CARTESIAN_POINT ( 'NONE',  ( 1.606081415867841091E-13, -5.633375276077824704E-15, 46.00000000000000000 ) ) ;
#164 = LOCAL_TIME ( 9, 22, 20.00000000000000000, #92 ) ;
#165 = DIRECTION ( 'NONE',  ( 4.275831445896958607E-31, 1.000000000000000000, 1.224646799147353207E-16 ) ) ;
#166 = EDGE_CURVE ( 'NONE', #214, #2, #134, .T. ) ;
#167 = CALENDAR_DATE ( 2021, 3, 9 ) ;
#168 = DIRECTION ( 'NONE',  ( -2.468850131082243650E-15, 0.7071067811865536790, -0.7071067811865413555 ) ) ;
#169 = PERSON_AND_ORGANIZATION_ROLE ( 'classification_officer' ) ;
#170 = DIRECTION ( 'NONE',  ( -3.491481338843133355E-15, 1.224646799147353207E-16, -1.000000000000000000 ) ) ;
#171 = AXIS2_PLACEMENT_3D ( 'NONE', #157, #267, #140 ) ;
#172 = SECURITY_CLASSIFICATION_LEVEL ( 'unclassified' ) ;
#173 =( NAMED_UNIT ( * ) SI_UNIT ( $, .STERADIAN. ) SOLID_ANGLE_UNIT ( ) );
#174 = VERTEX_POINT ( 'NONE', #161 ) ;
#175 = ORIENTED_EDGE ( 'NONE', *, *, #53, .F. ) ;
#176 = PRODUCT_DEFINITION_FORMATION_WITH_SPECIFIED_SOURCE ( 'ANY', '', #337, .NOT_KNOWN. ) ;
#177 = EDGE_CURVE ( 'NONE', #2, #214, #244, .T. ) ;
#178 = PERSON_AND_ORGANIZATION ( #156, #277 ) ;
#179 = PERSON_AND_ORGANIZATION ( #156, #277 ) ;
#180 = DIRECTION ( 'NONE',  ( -2.853229547240363506E-31, -1.000000000000000000, -1.606225440719273762E-16 ) ) ;
#181 = CARTESIAN_POINT ( 'NONE',  ( 2.253029355698549157E-14, -1.349999999999996314, 12.00000000000000000 ) ) ;
#182 = EDGE_LOOP ( 'NONE', ( #125, #254 ) ) ;
#183 = CARTESIAN_POINT ( 'NONE',  ( 1.607367295006945924E-13, -1.050000000000004485, 46.00000000000000000 ) ) ;
#184 = CIRCLE ( 'NONE', #302, 1.349999999999994760 ) ;
#185 = APPROVAL_PERSON_ORGANIZATION ( #139, #132, #9 ) ;
#186 = APPLICATION_CONTEXT ( 'configuration controlled 3d designs of mechanical parts and assemblies' ) ;
#187 = CARTESIAN_POINT ( 'NONE',  ( 1.606081415867841091E-13, 7.873738858974659386E-33, 46.00000000000000000 ) ) ;
#188 = CC_DESIGN_PERSON_AND_ORGANIZATION_ASSIGNMENT ( #114, #326, ( #176 ) ) ;
#189 = VECTOR ( 'NONE', #289, 1000.000000000000000 ) ;
#190 = DIRECTION ( 'NONE',  ( 4.275831445896958607E-31, 1.000000000000000000, 1.224646799147353207E-16 ) ) ;
#191 = DIRECTION ( 'NONE',  ( -3.491481338843133355E-15, 1.224646799147353207E-16, -1.000000000000000000 ) ) ;
#192 = CARTESIAN_POINT ( 'NONE',  ( 0.0000000000000000000, 0.0000000000000000000, 0.0000000000000000000 ) ) ;
#193 = VERTEX_POINT ( 'NONE', #103 ) ;
#194 = DIRECTION ( 'NONE',  ( -3.491481338843133355E-15, 1.224646799147353207E-16, -1.000000000000000000 ) ) ;
#195 = CARTESIAN_POINT ( 'NONE',  ( 4.189777606611760026E-14, 1.012337853296747864E-32, 12.00000000000000000 ) ) ;
#196 = EDGE_CURVE ( 'NONE', #68, #174, #310, .T. ) ;
#197 = APPROVAL_STATUS ( 'not_yet_approved' ) ;
#198 = ORIENTED_EDGE ( 'NONE', *, *, #196, .T. ) ;
#199 = CARTESIAN_POINT ( 'NONE',  ( 2.832156412083637745E-15, -9.933867456648344436E-17, 0.8111618356872112301 ) ) ;
#200 = VECTOR ( 'NONE', #308, 1000.000000000000000 ) ;
#201 = DIRECTION ( 'NONE',  ( -3.491481338843133355E-15, 1.224646799147353207E-16, -1.000000000000000000 ) ) ;
#202 = ADVANCED_FACE ( 'NONE', ( #135 ), #220, .T. ) ;
#203 = DATE_TIME_ROLE ( 'classification_date' ) ;
#204 = DIRECTION ( 'NONE',  ( 0.0000000000000000000, 1.000000000000000000, 0.0000000000000000000 ) ) ;
#205 = DIRECTION ( 'NONE',  ( 0.0000000000000000000, 0.0000000000000000000, 1.000000000000000000 ) ) ;
#206 = CONICAL_SURFACE ( 'NONE', #56, 1.349999999999993427, 1.029744258676649649 ) ;
#207 = AXIS2_PLACEMENT_3D ( 'NONE', #241, #291, #286 ) ;
#208 = DIRECTION ( 'NONE',  ( -3.491481338843133355E-15, 1.224646799147353207E-16, -1.000000000000000000 ) ) ;
#209 = UNCERTAINTY_MEASURE_WITH_UNIT (LENGTH_MEASURE( 1.000000000000000082E-05 ), #213, 'distance_accuracy_value', 'NONE');
#210 = ORIENTED_EDGE ( 'NONE', *, *, #83, .T. ) ;
#211 = COORDINATED_UNIVERSAL_TIME_OFFSET ( 1, 0, .AHEAD. ) ;
#212 = EDGE_CURVE ( 'NONE', #36, #73, #224, .T. ) ;
#213 =( LENGTH_UNIT ( ) NAMED_UNIT ( * ) SI_UNIT ( .MILLI., .METRE. ) );
#214 = VERTEX_POINT ( 'NONE', #334 ) ;
#215 = CC_DESIGN_APPROVAL ( #153, ( #304 ) ) ;
#216 = CARTESIAN_POINT ( 'NONE',  ( 2.997483729968530037E-15, 1.349999999999993427, 0.8111618356872114521 ) ) ;
#217 = CARTESIAN_POINT ( 'NONE',  ( 2.832156412083637745E-15, -1.349999999999993427, 0.8111618356872110081 ) ) ;
#218 = DIRECTION ( 'NONE',  ( -4.275831445896958607E-31, -1.000000000000000000, -1.224646799147353207E-16 ) ) ;
#219 = EDGE_CURVE ( 'NONE', #276, #119, #100, .T. ) ;
#220 = CYLINDRICAL_SURFACE ( 'NONE', #11, 1.349999999999996758 ) ;
#221 = CC_DESIGN_DATE_AND_TIME_ASSIGNMENT ( #273, #203, ( #304 ) ) ;
#222 = AXIS2_PLACEMENT_3D ( 'NONE', #238, #122, #23 ) ;
#223 = DIRECTION ( 'NONE',  ( 0.0000000000000000000, 1.000000000000000000, 0.0000000000000000000 ) ) ;
#224 = LINE ( 'NONE', #136, #200 ) ;
#225 = CONICAL_SURFACE ( 'NONE', #285, 1.049999999999998934, 0.7853981633974569387 ) ;
#226 = ORIENTED_EDGE ( 'NONE', *, *, #21, .F. ) ;
#227 = CALENDAR_DATE ( 2021, 3, 9 ) ;
#228 = APPLICATION_PROTOCOL_DEFINITION ( 'international standard', 'config_control_design', 1994, #26 ) ;
#229 = SHAPE_DEFINITION_REPRESENTATION ( #262, #126 ) ;
#230 = DIRECTION ( 'NONE',  ( 0.0000000000000000000, 1.000000000000000000, 0.0000000000000000000 ) ) ;
#231 = ORIENTED_EDGE ( 'NONE', *, *, #212, .T. ) ;
#232 = AXIS2_PLACEMENT_3D ( 'NONE', #187, #58, #102 ) ;
#233 = ORIENTED_EDGE ( 'NONE', *, *, #219, .T. ) ;
#234 = FACE_OUTER_BOUND ( 'NONE', #51, .T. ) ;
#235 = DATE_AND_TIME ( #49, #164 ) ;
#236 = CARTESIAN_POINT ( 'NONE',  ( 4.189777606611760026E-14, 1.349999999999993427, 12.00000000000000000 ) ) ;
#237 = LINE ( 'NONE', #303, #296 ) ;
#238 = CARTESIAN_POINT ( 'NONE',  ( 2.832156412083637745E-15, -9.933867456648344436E-17, 0.8111618356872112301 ) ) ;
#239 = ORIENTED_EDGE ( 'NONE', *, *, #166, .F. ) ;
#240 = AXIS2_PLACEMENT_3D ( 'NONE', #192, #266, #59 ) ;
#241 = CARTESIAN_POINT ( 'NONE',  ( 1.595606971851312133E-13, -5.596635872103404633E-15, 45.70000000000000284 ) ) ;
#242 = EDGE_LOOP ( 'NONE', ( #198, #243, #239, #155 ) ) ;
#243 = ORIENTED_EDGE ( 'NONE', *, *, #137, .T. ) ;
#244 = CIRCLE ( 'NONE', #207, 1.349999999999998757 ) ;
#245 = CARTESIAN_POINT ( 'NONE',  ( 0.0000000000000000000, 0.0000000000000000000, 0.0000000000000000000 ) ) ;
#246 = CC_DESIGN_PERSON_AND_ORGANIZATION_ASSIGNMENT ( #64, #62, ( #272 ) ) ;
#247 = ORIENTED_EDGE ( 'NONE', *, *, #257, .F. ) ;
#248 =( GEOMETRIC_REPRESENTATION_CONTEXT ( 3 ) GLOBAL_UNCERTAINTY_ASSIGNED_CONTEXT ( ( #209 ) ) GLOBAL_UNIT_ASSIGNED_CONTEXT ( ( #213, #317, #173 ) ) REPRESENTATION_CONTEXT ( 'NONE', 'WORKASPACE' ) );
#249 = ADVANCED_FACE ( 'NONE', ( #306 ), #78, .F. ) ;
#250 = ORIENTED_EDGE ( 'NONE', *, *, #257, .T. ) ;
#251 = PLANE ( 'NONE',  #288 ) ;
#252 = CARTESIAN_POINT ( 'NONE',  ( 4.189777606611760026E-14, -1.469576158976823947E-15, 12.00000000000000000 ) ) ;
#253 = PLANE ( 'NONE',  #32 ) ;
#254 = ORIENTED_EDGE ( 'NONE', *, *, #327, .F. ) ;
#255 = LINE ( 'NONE', #183, #128 ) ;
#256 = FACE_OUTER_BOUND ( 'NONE', #143, .T. ) ;
#257 = EDGE_CURVE ( 'NONE', #276, #73, #307, .T. ) ;
#258 = ORIENTED_EDGE ( 'NONE', *, *, #314, .F. ) ;
#259 = APPROVAL_STATUS ( 'not_yet_approved' ) ;
#260 = ORIENTED_EDGE ( 'NONE', *, *, #166, .T. ) ;
#261 = LOCAL_TIME ( 9, 22, 20.00000000000000000, #3 ) ;
#262 = PRODUCT_DEFINITION_SHAPE ( 'NONE', 'NONE',  #272 ) ;
#263 = DIRECTION ( 'NONE',  ( -3.491481338843133355E-15, 1.224646799147353207E-16, -1.000000000000000000 ) ) ;
#264 = ORIENTED_EDGE ( 'NONE', *, *, #322, .T. ) ;
#265 = CIRCLE ( 'NONE', #222, 1.349999999999993427 ) ;
#266 = DIRECTION ( 'NONE',  ( -3.491481338843133355E-15, 1.224646799147353207E-16, -1.000000000000000000 ) ) ;
#267 = DIRECTION ( 'NONE',  ( 3.491481338843133355E-15, -1.224646799147353207E-16, 1.000000000000000000 ) ) ;
#268 = DIRECTION ( 'NONE',  ( 0.0000000000000000000, 1.000000000000000000, 0.0000000000000000000 ) ) ;
#269 = EDGE_CURVE ( 'NONE', #119, #73, #105, .T. ) ;
#270 = DIRECTION ( 'NONE',  ( 0.0000000000000000000, 1.000000000000000000, 0.0000000000000000000 ) ) ;
#271 = LOCAL_TIME ( 9, 22, 20.00000000000000000, #87 ) ;
#272 = PRODUCT_DEFINITION ( 'UNKNOWN', '', #176, #69 ) ;
#273 = DATE_AND_TIME ( #16, #158 ) ;
#274 = CIRCLE ( 'NONE', #295, 1.349999999999994760 ) ;
#275 = APPROVAL_PERSON_ORGANIZATION ( #17, #88, #325 ) ;
#276 = VERTEX_POINT ( 'NONE', #67 ) ;
#277 = ORGANIZATION ( 'UNSPECIFIED', 'UNSPECIFIED', '' ) ;
#278 = VECTOR ( 'NONE', #159, 999.9999999999998863 ) ;
#279 = FACE_OUTER_BOUND ( 'NONE', #31, .T. ) ;
#280 = PERSON_AND_ORGANIZATION_ROLE ( 'design_owner' ) ;
#281 = ORIENTED_EDGE ( 'NONE', *, *, #40, .T. ) ;
#282 = MANIFOLD_SOLID_BREP ( 'Corps-Déplacer/Copier1[1]', #24 ) ;
#283 = VERTEX_POINT ( 'NONE', #144 ) ;
#284 = CARTESIAN_POINT ( 'NONE',  ( 4.189777606611760026E-14, 1.012337853296747864E-32, 12.00000000000000000 ) ) ;
#285 = AXIS2_PLACEMENT_3D ( 'NONE', #320, #104, #270 ) ;
#286 = DIRECTION ( 'NONE',  ( 0.0000000000000000000, 1.000000000000000000, 0.0000000000000000000 ) ) ;
#287 = AXIS2_PLACEMENT_3D ( 'NONE', #77, #194, #22 ) ;
#288 = AXIS2_PLACEMENT_3D ( 'NONE', #195, #12, #91 ) ;
#289 = DIRECTION ( 'NONE',  ( -3.491481338843133355E-15, 1.224646799147353207E-16, -1.000000000000000000 ) ) ;
#290 = CC_DESIGN_PERSON_AND_ORGANIZATION_ASSIGNMENT ( #297, #93, ( #176 ) ) ;
#291 = DIRECTION ( 'NONE',  ( -3.491481338843133355E-15, 1.224646799147353207E-16, -1.000000000000000000 ) ) ;
#292 = CARTESIAN_POINT ( 'NONE',  ( 4.189777606611760026E-14, -1.469576158976823947E-15, 12.00000000000000000 ) ) ;
#293 = ADVANCED_FACE ( 'NONE', ( #256 ), #154, .T. ) ;
#294 = ORIENTED_EDGE ( 'NONE', *, *, #212, .F. ) ;
#295 = AXIS2_PLACEMENT_3D ( 'NONE', #252, #201, #230 ) ;
#296 = VECTOR ( 'NONE', #98, 1000.000000000000000 ) ;
#297 = PERSON_AND_ORGANIZATION ( #156, #277 ) ;
#298 = FACE_OUTER_BOUND ( 'NONE', #182, .T. ) ;
#299 = ADVANCED_FACE ( 'NONE', ( #298 ), #253, .T. ) ;
#300 = CARTESIAN_POINT ( 'NONE',  ( 0.0000000000000000000, 0.0000000000000000000, 0.0000000000000000000 ) ) ;
#301 = ADVANCED_FACE ( 'NONE', ( #147 ), #20, .T. ) ;
#302 = AXIS2_PLACEMENT_3D ( 'NONE', #46, #149, #204 ) ;
#303 = CARTESIAN_POINT ( 'NONE',  ( 1.653273178848913801E-16, -1.349999999999994094, -1.653273178848925141E-16 ) ) ;
#304 = SECURITY_CLASSIFICATION ( '', '', #172 ) ;
#305 = FACE_OUTER_BOUND ( 'NONE', #312, .T. ) ;
#306 = FACE_OUTER_BOUND ( 'NONE', #60, .T. ) ;
#307 = LINE ( 'NONE', #55, #278 ) ;
#308 = DIRECTION ( 'NONE',  ( -3.491481338843133355E-15, 1.224646799147353207E-16, -1.000000000000000000 ) ) ;
#309 = AXIS2_PLACEMENT_3D ( 'NONE', #66, #39, #117 ) ;
#310 = CIRCLE ( 'NONE', #148, 1.049999999999998934 ) ;
#311 = ADVANCED_FACE ( 'NONE', ( #34 ), #225, .T. ) ;
#312 = EDGE_LOOP ( 'NONE', ( #210, #264, #258, #294 ) ) ;
#313 = CARTESIAN_POINT ( 'NONE',  ( 1.606081415867841091E-13, 1.049999999999993161, 46.00000000000000000 ) ) ;
#314 = EDGE_CURVE ( 'NONE', #73, #119, #265, .T. ) ;
#315 = CYLINDRICAL_SURFACE ( 'NONE', #240, 1.349999999999996758 ) ;
#316 = CC_DESIGN_APPROVAL ( #88, ( #272 ) ) ;
#317 =( NAMED_UNIT ( * ) PLANE_ANGLE_UNIT ( ) SI_UNIT ( $, .RADIAN. ) );
#318 = ORIENTED_EDGE ( 'NONE', *, *, #53, .T. ) ;
#319 = DATE_AND_TIME ( #227, #271 ) ;
#320 = CARTESIAN_POINT ( 'NONE',  ( 1.606081415867841091E-13, -5.633375276077824704E-15, 46.00000000000000000 ) ) ;
#321 = ORIENTED_EDGE ( 'NONE', *, *, #322, .F. ) ;
#322 = EDGE_CURVE ( 'NONE', #332, #119, #237, .T. ) ;
#323 = APPLICATION_PROTOCOL_DEFINITION ( 'international standard', 'config_control_design', 1994, #186 ) ;
#324 = APPROVAL_ROLE ( '' ) ;
#325 = APPROVAL_ROLE ( '' ) ;
#326 = PERSON_AND_ORGANIZATION_ROLE ( 'creator' ) ;
#327 = EDGE_CURVE ( 'NONE', #332, #36, #18, .T. ) ;
#328 = CARTESIAN_POINT ( 'NONE',  ( 1.653273178848917252E-16, -1.349999999999996758, -1.653273178848928592E-16 ) ) ;
#329 = CARTESIAN_POINT ( 'NONE',  ( 4.189777606611760026E-14, -1.469576158976823947E-15, 12.00000000000000000 ) ) ;
#330 = LINE ( 'NONE', #313, #37 ) ;
#331 = CARTESIAN_POINT ( 'NONE',  ( 1.606081415867841091E-13, -5.633375276077824704E-15, 46.00000000000000000 ) ) ;
#332 = VERTEX_POINT ( 'NONE', #181 ) ;
#333 = CALENDAR_DATE ( 2021, 3, 9 ) ;
#334 = CARTESIAN_POINT ( 'NONE',  ( 1.595606971851312133E-13, 1.349999999999993205, 45.70000000000000284 ) ) ;
#335 = ORIENTED_EDGE ( 'NONE', *, *, #108, .F. ) ;
#336 = DIRECTION ( 'NONE',  ( 1.798245827342160317E-15, -0.8571673007021098911, 0.5150380749100582634 ) ) ;
#337 = PRODUCT ( '42139', '42139', '', ( #71 ) ) ;
ENDSEC;
END-ISO-10303-21;
