ISO-10303-21;
HEADER;
FILE_DESCRIPTION (( 'STEP AP203' ),
    '1' );
FILE_NAME ('42126.step',
    '2021-11-01T09:16:14',
    ( '' ),
    ( '' ),
    'SwSTEP 2.0',
    'SolidWorks 2019',
    '' );
FILE_SCHEMA (( 'CONFIG_CONTROL_DESIGN' ));
ENDSEC;

DATA;
#1 = VERTEX_POINT ( 'NONE', #197 ) ;
#2 = SECURITY_CLASSIFICATION ( '', '', #202 ) ;
#3 = CARTESIAN_POINT ( 'NONE',  ( 2.065201102346536174E-14, -1.499999999999996003, 5.914971045014432605 ) ) ;
#4 = CC_DESIGN_PERSON_AND_ORGANIZATION_ASSIGNMENT ( #236, #106, ( #137 ) ) ;
#5 = APPROVAL_DATE_TIME ( #35, #175 ) ;
#6 = EDGE_LOOP ( 'NONE', ( #163 ) ) ;
#7 = APPROVAL_STATUS ( 'not_yet_approved' ) ;
#8 = AXIS2_PLACEMENT_3D ( 'NONE', #99, #72, #73 ) ;
#9 = DESIGN_CONTEXT ( 'detailed design', #77, 'design' ) ;
#10 = PERSON_AND_ORGANIZATION ( #216, #95 ) ;
#11 = FACE_OUTER_BOUND ( 'NONE', #91, .T. ) ;
#12 = CARTESIAN_POINT ( 'NONE',  ( 2.793185071074505107E-15, -2.312964634635748380E-16, 0.7999999999999994893 ) ) ;
#13 = CALENDAR_DATE ( 2021, 1, 11 ) ;
#14 =( GEOMETRIC_REPRESENTATION_CONTEXT ( 3 ) GLOBAL_UNCERTAINTY_ASSIGNED_CONTEXT ( ( #220 ) ) GLOBAL_UNIT_ASSIGNED_CONTEXT ( ( #198, #177, #63 ) ) REPRESENTATION_CONTEXT ( 'NONE', 'WORKASPACE' ) );
#15 = DIRECTION ( 'NONE',  ( 3.491481338843133355E-15, -1.219242935835426903E-16, 1.000000000000000000 ) ) ;
#16 = CIRCLE ( 'NONE', #120, 1.499999999999997558 ) ;
#17 = CC_DESIGN_DATE_AND_TIME_ASSIGNMENT ( #146, #208, ( #2 ) ) ;
#18 = DIRECTION ( 'NONE',  ( -4.256963957985708889E-31, -1.000000000000000000, -1.219242935835426903E-16 ) ) ;
#19 = FACE_BOUND ( 'NONE', #144, .T. ) ;
#20 = DIRECTION ( 'NONE',  ( 0.0000000000000000000, -1.000000000000000000, 0.0000000000000000000 ) ) ;
#21 = CIRCLE ( 'NONE', #97, 0.2000000000000000944 ) ;
#22 = CLOSED_SHELL ( 'NONE', ( #60, #185, #223 ) ) ;
#23 = CARTESIAN_POINT ( 'NONE',  ( 2.793185071074501951E-15, -0.2000000000000003164, 0.7999999999999986011 ) ) ;
#24 = VERTEX_POINT ( 'NONE', #47 ) ;
#25 = ADVANCED_FACE ( 'NONE', ( #78 ), #150, .F. ) ;
#26 = AXIS2_PLACEMENT_3D ( 'NONE', #231, #176, #20 ) ;
#27 = ORIENTED_EDGE ( 'NONE', *, *, #212, .T. ) ;
#28 = EDGE_LOOP ( 'NONE', ( #27 ) ) ;
#29 = PRODUCT_DEFINITION_FORMATION_WITH_SPECIFIED_SOURCE ( 'ANY', '', #137, .NOT_KNOWN. ) ;
#30 = LOCAL_TIME ( 10, 16, 14.00000000000000000, #92 ) ;
#31 = ORIENTED_EDGE ( 'NONE', *, *, #233, .F. ) ;
#32 = PRODUCT_RELATED_PRODUCT_CATEGORY ( 'detail', '', ( #137 ) ) ;
#33 = PERSON_AND_ORGANIZATION_ROLE ( 'creator' ) ;
#34 = ORIENTED_EDGE ( 'NONE', *, *, #133, .T. ) ;
#35 = DATE_AND_TIME ( #124, #117 ) ;
#36 = ORIENTED_EDGE ( 'NONE', *, *, #102, .T. ) ;
#37 = EDGE_CURVE ( 'NONE', #155, #155, #243, .T. ) ;
#38 = CARTESIAN_POINT ( 'NONE',  ( 2.793185071074505107E-15, -2.312964634635748380E-16, 0.7999999999999994893 ) ) ;
#39 = TOROIDAL_SURFACE ( 'NONE', #126, 2.199999999999999734, 2.000000000000000000 ) ;
#40 = PLANE ( 'NONE',  #80 ) ;
#41 = CARTESIAN_POINT ( 'NONE',  ( 2.793185071074501951E-15, -9.753943486683398705E-17, 0.7999999999999986011 ) ) ;
#42 = AXIS2_PLACEMENT_3D ( 'NONE', #118, #66, #214 ) ;
#43 = FACE_OUTER_BOUND ( 'NONE', #105, .T. ) ;
#44 = DIRECTION ( 'NONE',  ( -3.491481338843133355E-15, 1.224646799147353207E-16, -1.000000000000000000 ) ) ;
#45 = CARTESIAN_POINT ( 'NONE',  ( 4.600508803299759121E-15, -1.606520933470163231E-16, 1.317638090205027757 ) ) ;
#46 = CC_DESIGN_APPROVAL ( #175, ( #29 ) ) ;
#47 = CARTESIAN_POINT ( 'NONE',  ( 2.793185071074501951E-15, -0.2000000000000003164, 0.7999999999999986011 ) ) ;
#48 = VERTEX_POINT ( 'NONE', #23 ) ;
#49 = AXIS2_PLACEMENT_3D ( 'NONE', #41, #207, #94 ) ;
#50 = CALENDAR_DATE ( 2021, 1, 11 ) ;
#51 = DATE_AND_TIME ( #50, #30 ) ;
#52 = EDGE_LOOP ( 'NONE', ( #238 ) ) ;
#53 = CLOSED_SHELL ( 'NONE', ( #79, #130, #25, #235, #89, #164 ) ) ;
#54 = LOCAL_TIME ( 10, 16, 14.00000000000000000, #110 ) ;
#55 = APPROVAL_ROLE ( '' ) ;
#56 = EDGE_CURVE ( 'NONE', #157, #157, #21, .T. ) ;
#57 = AXIS2_PLACEMENT_3D ( 'NONE', #38, #189, #112 ) ;
#58 = FACE_OUTER_BOUND ( 'NONE', #169, .T. ) ;
#59 = DIRECTION ( 'NONE',  ( 3.491481338843133355E-15, -1.219242935835426903E-16, 1.000000000000000000 ) ) ;
#60 = ADVANCED_FACE ( 'NONE', ( #206 ), #221, .T. ) ;
#61 = DIRECTION ( 'NONE',  ( 3.491481338843133355E-15, -1.219242935835426903E-16, 1.000000000000000000 ) ) ;
#62 = AXIS2_PLACEMENT_3D ( 'NONE', #211, #171, #190 ) ;
#63 =( NAMED_UNIT ( * ) SI_UNIT ( $, .STERADIAN. ) SOLID_ANGLE_UNIT ( ) );
#64 = DIRECTION ( 'NONE',  ( 3.491481338843133355E-15, -1.219242935835426903E-16, 1.000000000000000000 ) ) ;
#65 = CC_DESIGN_PERSON_AND_ORGANIZATION_ASSIGNMENT ( #165, #67, ( #29 ) ) ;
#66 = DIRECTION ( 'NONE',  ( 3.491481338843133355E-15, -1.219242935835426903E-16, 1.000000000000000000 ) ) ;
#67 = PERSON_AND_ORGANIZATION_ROLE ( 'design_supplier' ) ;
#68 = AXIS2_PLACEMENT_3D ( 'NONE', #192, #84, #159 ) ;
#69 = PERSON_AND_ORGANIZATION ( #216, #95 ) ;
#70 = CIRCLE ( 'NONE', #103, 0.2681483474218598340 ) ;
#71 = APPROVAL_ROLE ( '' ) ;
#72 = DIRECTION ( 'NONE',  ( -3.491481338843133355E-15, 1.219242935835426903E-16, -1.000000000000000000 ) ) ;
#73 = DIRECTION ( 'NONE',  ( 0.0000000000000000000, -1.000000000000000000, 0.0000000000000000000 ) ) ;
#74 = ADVANCED_BREP_SHAPE_REPRESENTATION ( '42126', ( #158, #166, #76 ), #14 ) ;
#75 = DIRECTION ( 'NONE',  ( 0.0000000000000000000, 1.000000000000000000, 0.0000000000000000000 ) ) ;
#76 = AXIS2_PLACEMENT_3D ( 'NONE', #82, #229, #138 ) ;
#77 = APPLICATION_CONTEXT ( 'configuration controlled 3d designs of mechanical parts and assemblies' ) ;
#78 = FACE_OUTER_BOUND ( 'NONE', #200, .T. ) ;
#79 = ADVANCED_FACE ( 'NONE', ( #187, #186 ), #111, .T. ) ;
#80 = AXIS2_PLACEMENT_3D ( 'NONE', #12, #98, #241 ) ;
#81 = APPLICATION_CONTEXT ( 'configuration controlled 3d designs of mechanical parts and assemblies' ) ;
#82 = CARTESIAN_POINT ( 'NONE',  ( 0.0000000000000000000, 0.0000000000000000000, 0.0000000000000000000 ) ) ;
#83 = MECHANICAL_CONTEXT ( 'NONE', #81, 'mechanical' ) ;
#84 = DIRECTION ( 'NONE',  ( 3.491481338843133355E-15, -1.224646799147353207E-16, 1.000000000000000000 ) ) ;
#85 = AXIS2_PLACEMENT_3D ( 'NONE', #131, #170, #132 ) ;
#86 = DIRECTION ( 'NONE',  ( 0.0000000000000000000, -1.000000000000000000, 0.0000000000000000000 ) ) ;
#87 = DATE_TIME_ROLE ( 'creation_date' ) ;
#88 = CC_DESIGN_SECURITY_CLASSIFICATION ( #2, ( #29 ) ) ;
#89 = ADVANCED_FACE ( 'NONE', ( #58, #11 ), #39, .F. ) ;
#90 = CALENDAR_DATE ( 2021, 1, 11 ) ;
#91 = EDGE_LOOP ( 'NONE', ( #217 ) ) ;
#92 = COORDINATED_UNIVERSAL_TIME_OFFSET ( 1, 0, .AHEAD. ) ;
#93 = ORIENTED_EDGE ( 'NONE', *, *, #56, .T. ) ;
#94 = DIRECTION ( 'NONE',  ( 0.0000000000000000000, -1.000000000000000000, 0.0000000000000000000 ) ) ;
#95 = ORGANIZATION ( 'UNSPECIFIED', 'UNSPECIFIED', '' ) ;
#96 = SHAPE_DEFINITION_REPRESENTATION ( #234, #74 ) ;
#97 = AXIS2_PLACEMENT_3D ( 'NONE', #209, #61, #153 ) ;
#98 = DIRECTION ( 'NONE',  ( 3.491481338843133355E-15, -1.224646799147353207E-16, 1.000000000000000000 ) ) ;
#99 = CARTESIAN_POINT ( 'NONE',  ( 2.065201102346536174E-14, -7.211786662304940925E-16, 5.914971045014432605 ) ) ;
#100 = FACE_BOUND ( 'NONE', #28, .T. ) ;
#101 = PLANE ( 'NONE',  #68 ) ;
#102 = EDGE_CURVE ( 'NONE', #1, #1, #16, .T. ) ;
#103 = AXIS2_PLACEMENT_3D ( 'NONE', #45, #64, #86 ) ;
#104 = PERSON_AND_ORGANIZATION ( #216, #95 ) ;
#105 = EDGE_LOOP ( 'NONE', ( #31 ) ) ;
#106 = PERSON_AND_ORGANIZATION_ROLE ( 'design_owner' ) ;
#107 = EDGE_LOOP ( 'NONE', ( #205 ) ) ;
#108 = APPROVAL ( #199, 'UNSPECIFIED' ) ;
#109 = ORIENTED_EDGE ( 'NONE', *, *, #102, .F. ) ;
#110 = COORDINATED_UNIVERSAL_TIME_OFFSET ( 1, 0, .AHEAD. ) ;
#111 = CYLINDRICAL_SURFACE ( 'NONE', #62, 1.499999999999995337 ) ;
#112 = DIRECTION ( 'NONE',  ( -4.275831445896958607E-31, -1.000000000000000000, -1.224646799147353207E-16 ) ) ;
#113 = CARTESIAN_POINT ( 'NONE',  ( 0.0000000000000000000, 0.0000000000000000000, 0.0000000000000000000 ) ) ;
#114 = DATE_AND_TIME ( #149, #128 ) ;
#115 = AXIS2_PLACEMENT_3D ( 'NONE', #113, #15, #18 ) ;
#116 = FACE_OUTER_BOUND ( 'NONE', #125, .T. ) ;
#117 = LOCAL_TIME ( 10, 16, 14.00000000000000000, #183 ) ;
#118 = CARTESIAN_POINT ( 'NONE',  ( 3.368239677370689269E-14, -1.176206324561231923E-15, 9.647021852583412382 ) ) ;
#119 = CC_DESIGN_PERSON_AND_ORGANIZATION_ASSIGNMENT ( #232, #161, ( #29 ) ) ;
#120 = AXIS2_PLACEMENT_3D ( 'NONE', #135, #44, #174 ) ;
#121 = PERSON_AND_ORGANIZATION ( #216, #95 ) ;
#122 = APPROVAL_DATE_TIME ( #51, #108 ) ;
#123 = ORIENTED_EDGE ( 'NONE', *, *, #160, .T. ) ;
#124 = CALENDAR_DATE ( 2021, 1, 11 ) ;
#125 = EDGE_LOOP ( 'NONE', ( #109 ) ) ;
#126 = AXIS2_PLACEMENT_3D ( 'NONE', #242, #59, #227 ) ;
#127 = CARTESIAN_POINT ( 'NONE',  ( 1.326762908760390423E-13, 8.998558695971062171E-33, 38.00000000000000000 ) ) ;
#128 = LOCAL_TIME ( 10, 16, 14.00000000000000000, #168 ) ;
#129 = AXIS2_PLACEMENT_3D ( 'NONE', #127, #239, #152 ) ;
#130 = ADVANCED_FACE ( 'NONE', ( #116, #19 ), #179, .T. ) ;
#131 = CARTESIAN_POINT ( 'NONE',  ( 1.326762908760390423E-13, -4.653657836759941941E-15, 38.00000000000000000 ) ) ;
#132 = DIRECTION ( 'NONE',  ( 0.0000000000000000000, 1.000000000000000000, 0.0000000000000000000 ) ) ;
#133 = EDGE_CURVE ( 'NONE', #195, #195, #188, .T. ) ;
#134 = CIRCLE ( 'NONE', #26, 0.2000000000000002054 ) ;
#135 = CARTESIAN_POINT ( 'NONE',  ( 1.316288464743861212E-13, -4.616918432785521081E-15, 37.69999999999999574 ) ) ;
#136 = CARTESIAN_POINT ( 'NONE',  ( 1.326762908760390423E-13, 1.199999999999993294, 38.00000000000000000 ) ) ;
#137 = PRODUCT ( '42126', '42126', '', ( #83 ) ) ;
#138 = DIRECTION ( 'NONE',  ( 1.000000000000000000, 0.0000000000000000000, 0.0000000000000000000 ) ) ;
#139 = CARTESIAN_POINT ( 'NONE',  ( -2.094414058255460259E-30, -0.2000000000000000944, -5.998640276133977825E-16 ) ) ;
#140 = FACE_OUTER_BOUND ( 'NONE', #142, .T. ) ;
#141 = APPLICATION_PROTOCOL_DEFINITION ( 'international standard', 'config_control_design', 1994, #77 ) ;
#142 = EDGE_LOOP ( 'NONE', ( #34 ) ) ;
#143 = ORIENTED_EDGE ( 'NONE', *, *, #37, .T. ) ;
#144 = EDGE_LOOP ( 'NONE', ( #143 ) ) ;
#145 = COORDINATED_UNIVERSAL_TIME_OFFSET ( 1, 0, .AHEAD. ) ;
#146 = DATE_AND_TIME ( #13, #54 ) ;
#147 = FACE_OUTER_BOUND ( 'NONE', #215, .T. ) ;
#148 = CC_DESIGN_DATE_AND_TIME_ASSIGNMENT ( #219, #87, ( #191 ) ) ;
#149 = CALENDAR_DATE ( 2021, 1, 11 ) ;
#150 = PLANE ( 'NONE',  #129 ) ;
#151 = FACE_OUTER_BOUND ( 'NONE', #6, .T. ) ;
#152 = DIRECTION ( 'NONE',  ( 4.275831445896958607E-31, 1.000000000000000000, 1.224646799147353207E-16 ) ) ;
#153 = DIRECTION ( 'NONE',  ( -4.256963957985703634E-31, -1.000000000000000000, -1.219242935835427889E-16 ) ) ;
#154 = CIRCLE ( 'NONE', #49, 0.2000000000000002054 ) ;
#155 = VERTEX_POINT ( 'NONE', #136 ) ;
#156 = APPROVAL_PERSON_ORGANIZATION ( #10, #218, #226 ) ;
#157 = VERTEX_POINT ( 'NONE', #139 ) ;
#158 = MANIFOLD_SOLID_BREP ( 'Corps-Déplacer/Copier1[1]', #53 ) ;
#159 = DIRECTION ( 'NONE',  ( -4.275831445896958607E-31, -1.000000000000000000, -1.224646799147353207E-16 ) ) ;
#160 = EDGE_CURVE ( 'NONE', #48, #48, #154, .T. ) ;
#161 = PERSON_AND_ORGANIZATION_ROLE ( 'creator' ) ;
#162 = CC_DESIGN_APPROVAL ( #108, ( #191 ) ) ;
#163 = ORIENTED_EDGE ( 'NONE', *, *, #160, .F. ) ;
#164 = ADVANCED_FACE ( 'NONE', ( #43 ), #40, .F. ) ;
#165 = PERSON_AND_ORGANIZATION ( #216, #95 ) ;
#166 = MANIFOLD_SOLID_BREP ( 'Corps-Déplacer/Copier1[2]', #22 ) ;
#167 = ORIENTED_EDGE ( 'NONE', *, *, #37, .F. ) ;
#168 = COORDINATED_UNIVERSAL_TIME_OFFSET ( 1, 0, .AHEAD. ) ;
#169 = EDGE_LOOP ( 'NONE', ( #201 ) ) ;
#170 = DIRECTION ( 'NONE',  ( -3.491481338843133355E-15, 1.224646799147353207E-16, -1.000000000000000000 ) ) ;
#171 = DIRECTION ( 'NONE',  ( -3.491481338843133355E-15, 1.224646799147353207E-16, -1.000000000000000000 ) ) ;
#172 = AXIS2_PLACEMENT_3D ( 'NONE', #173, #225, #75 ) ;
#173 = CARTESIAN_POINT ( 'NONE',  ( 1.326762908760390423E-13, -4.653657836759941941E-15, 38.00000000000000000 ) ) ;
#174 = DIRECTION ( 'NONE',  ( 0.0000000000000000000, 1.000000000000000000, 0.0000000000000000000 ) ) ;
#175 = APPROVAL ( #180, 'UNSPECIFIED' ) ;
#176 = DIRECTION ( 'NONE',  ( 3.491481338843133355E-15, -1.219242935835426903E-16, 1.000000000000000000 ) ) ;
#177 =( NAMED_UNIT ( * ) PLANE_ANGLE_UNIT ( ) SI_UNIT ( $, .RADIAN. ) );
#178 = FACE_OUTER_BOUND ( 'NONE', #52, .T. ) ;
#179 = CONICAL_SURFACE ( 'NONE', #85, 1.199999999999997957, 0.7853981633974450594 ) ;
#180 = APPROVAL_STATUS ( 'not_yet_approved' ) ;
#181 = PERSON_AND_ORGANIZATION_ROLE ( 'classification_officer' ) ;
#182 = APPROVAL_PERSON_ORGANIZATION ( #204, #175, #55 ) ;
#183 = COORDINATED_UNIVERSAL_TIME_OFFSET ( 1, 0, .AHEAD. ) ;
#184 = EDGE_LOOP ( 'NONE', ( #123 ) ) ;
#185 = ADVANCED_FACE ( 'NONE', ( #147, #151 ), #224, .T. ) ;
#186 = FACE_OUTER_BOUND ( 'NONE', #107, .T. ) ;
#187 = FACE_OUTER_BOUND ( 'NONE', #203, .T. ) ;
#188 = CIRCLE ( 'NONE', #8, 1.499999999999995337 ) ;
#189 = DIRECTION ( 'NONE',  ( 3.491481338843133355E-15, -1.224646799147353207E-16, 1.000000000000000000 ) ) ;
#190 = DIRECTION ( 'NONE',  ( 4.275831445896958607E-31, 1.000000000000000000, 1.224646799147353207E-16 ) ) ;
#191 = PRODUCT_DEFINITION ( 'UNKNOWN', '', #29, #9 ) ;
#192 = CARTESIAN_POINT ( 'NONE',  ( -6.413803915257455362E-31, 2.249659577954771652E-32, -1.836986451539392583E-16 ) ) ;
#193 = CONICAL_SURFACE ( 'NONE', #42, 2.499999999999996447, 0.2617993877991429685 ) ;
#194 = CC_DESIGN_APPROVAL ( #218, ( #2 ) ) ;
#195 = VERTEX_POINT ( 'NONE', #3 ) ;
#196 = VERTEX_POINT ( 'NONE', #213 ) ;
#197 = CARTESIAN_POINT ( 'NONE',  ( 1.316288464743861212E-13, 1.499999999999993117, 37.69999999999999574 ) ) ;
#198 =( LENGTH_UNIT ( ) NAMED_UNIT ( * ) SI_UNIT ( .MILLI., .METRE. ) );
#199 = APPROVAL_STATUS ( 'not_yet_approved' ) ;
#200 = EDGE_LOOP ( 'NONE', ( #167 ) ) ;
#201 = ORIENTED_EDGE ( 'NONE', *, *, #233, .T. ) ;
#202 = SECURITY_CLASSIFICATION_LEVEL ( 'unclassified' ) ;
#203 = EDGE_LOOP ( 'NONE', ( #36 ) ) ;
#204 = PERSON_AND_ORGANIZATION ( #216, #95 ) ;
#205 = ORIENTED_EDGE ( 'NONE', *, *, #133, .F. ) ;
#206 = FACE_OUTER_BOUND ( 'NONE', #184, .T. ) ;
#207 = DIRECTION ( 'NONE',  ( 3.491481338843133355E-15, -1.219242935835426903E-16, 1.000000000000000000 ) ) ;
#208 = DATE_TIME_ROLE ( 'classification_date' ) ;
#209 = CARTESIAN_POINT ( 'NONE',  ( -2.009274779095746203E-30, 7.016489113977309679E-32, -5.754791688966892641E-16 ) ) ;
#210 = APPROVAL_DATE_TIME ( #114, #218 ) ;
#211 = CARTESIAN_POINT ( 'NONE',  ( 0.0000000000000000000, 0.0000000000000000000, 0.0000000000000000000 ) ) ;
#212 = EDGE_CURVE ( 'NONE', #196, #196, #70, .T. ) ;
#213 = CARTESIAN_POINT ( 'NONE',  ( 4.600508803299759121E-15, -0.2681483474218600005, 1.317638090205027757 ) ) ;
#214 = DIRECTION ( 'NONE',  ( 0.0000000000000000000, -1.000000000000000000, 0.0000000000000000000 ) ) ;
#215 = EDGE_LOOP ( 'NONE', ( #93 ) ) ;
#216 = PERSON ( 'UNSPECIFIED', 'UNSPECIFIED', 'UNSPECIFIED', ('UNSPECIFIED'), ('UNSPECIFIED'), ('UNSPECIFIED') ) ;
#217 = ORIENTED_EDGE ( 'NONE', *, *, #212, .F. ) ;
#218 = APPROVAL ( #7, 'UNSPECIFIED' ) ;
#219 = DATE_AND_TIME ( #90, #222 ) ;
#220 = UNCERTAINTY_MEASURE_WITH_UNIT (LENGTH_MEASURE( 1.000000000000000082E-05 ), #198, 'distance_accuracy_value', 'NONE');
#221 = PLANE ( 'NONE',  #57 ) ;
#222 = LOCAL_TIME ( 10, 16, 14.00000000000000000, #145 ) ;
#223 = ADVANCED_FACE ( 'NONE', ( #178 ), #101, .F. ) ;
#224 = CYLINDRICAL_SURFACE ( 'NONE', #115, 0.2000000000000001499 ) ;
#225 = DIRECTION ( 'NONE',  ( -3.491481338843133355E-15, 1.224646799147353207E-16, -1.000000000000000000 ) ) ;
#226 = APPROVAL_ROLE ( '' ) ;
#227 = DIRECTION ( 'NONE',  ( -4.335997572281123836E-31, -1.000000000000000000, -1.219242935835426903E-16 ) ) ;
#228 = APPLICATION_PROTOCOL_DEFINITION ( 'international standard', 'config_control_design', 1994, #81 ) ;
#229 = DIRECTION ( 'NONE',  ( 0.0000000000000000000, 0.0000000000000000000, 1.000000000000000000 ) ) ;
#230 = CC_DESIGN_PERSON_AND_ORGANIZATION_ASSIGNMENT ( #69, #33, ( #191 ) ) ;
#231 = CARTESIAN_POINT ( 'NONE',  ( 2.793185071074501951E-15, -9.753943486683398705E-17, 0.7999999999999986011 ) ) ;
#232 = PERSON_AND_ORGANIZATION ( #216, #95 ) ;
#233 = EDGE_CURVE ( 'NONE', #24, #24, #134, .T. ) ;
#234 = PRODUCT_DEFINITION_SHAPE ( 'NONE', 'NONE',  #191 ) ;
#235 = ADVANCED_FACE ( 'NONE', ( #100, #140 ), #193, .T. ) ;
#236 = PERSON_AND_ORGANIZATION ( #216, #95 ) ;
#237 = APPROVAL_PERSON_ORGANIZATION ( #121, #108, #71 ) ;
#238 = ORIENTED_EDGE ( 'NONE', *, *, #56, .F. ) ;
#239 = DIRECTION ( 'NONE',  ( -3.491481338843133355E-15, 1.224646799147353207E-16, -1.000000000000000000 ) ) ;
#240 = CC_DESIGN_PERSON_AND_ORGANIZATION_ASSIGNMENT ( #104, #181, ( #2 ) ) ;
#241 = DIRECTION ( 'NONE',  ( -4.275831445896958607E-31, -1.000000000000000000, -1.224646799147353207E-16 ) ) ;
#242 = CARTESIAN_POINT ( 'NONE',  ( 2.793185071074502740E-15, 0.0000000000000000000, 0.7999999999999988232 ) ) ;
#243 = CIRCLE ( 'NONE', #172, 1.199999999999997957 ) ;
ENDSEC;
END-ISO-10303-21;
