ISO-10303-21;
HEADER;
FILE_DESCRIPTION (( 'STEP AP203' ),
    '1' );
FILE_NAME ('42124.step',
    '2021-11-15T14:31:27',
    ( '' ),
    ( '' ),
    'SwSTEP 2.0',
    'SolidWorks 2019',
    '' );
FILE_SCHEMA (( 'CONFIG_CONTROL_DESIGN' ));
ENDSEC;

DATA;
#1 = ADVANCED_BREP_SHAPE_REPRESENTATION ( '42124', ( #33, #179, #39 ), #144 ) ;
#2 = AXIS2_PLACEMENT_3D ( 'NONE', #94, #178, #142 ) ;
#3 = PRODUCT ( '42124', '42124', '', ( #104 ) ) ;
#4 = AXIS2_PLACEMENT_3D ( 'NONE', #62, #85, #136 ) ;
#5 = CC_DESIGN_DATE_AND_TIME_ASSIGNMENT ( #125, #106, ( #22 ) ) ;
#6 = APPLICATION_PROTOCOL_DEFINITION ( 'international standard', 'config_control_design', 1994, #88 ) ;
#7 = AXIS2_PLACEMENT_3D ( 'NONE', #219, #99, #45 ) ;
#8 = APPROVAL_DATE_TIME ( #81, #222 ) ;
#9 = PERSON ( 'UNSPECIFIED', 'UNSPECIFIED', 'UNSPECIFIED', ('UNSPECIFIED'), ('UNSPECIFIED'), ('UNSPECIFIED') ) ;
#10 = DATE_AND_TIME ( #156, #153 ) ;
#11 = FACE_OUTER_BOUND ( 'NONE', #172, .T. ) ;
#12 = DIRECTION ( 'NONE',  ( -4.346880784298276734E-31, -1.000000000000000000, -1.244996138440932305E-16 ) ) ;
#13 = PERSON_AND_ORGANIZATION ( #9, #37 ) ;
#14 = ADVANCED_FACE ( 'NONE', ( #150, #129 ), #116, .T. ) ;
#15 = AXIS2_PLACEMENT_3D ( 'NONE', #124, #191, #214 ) ;
#16 = PERSON_AND_ORGANIZATION ( #9, #37 ) ;
#17 = ORIENTED_EDGE ( 'NONE', *, *, #161, .F. ) ;
#18 = EDGE_CURVE ( 'NONE', #166, #166, #78, .T. ) ;
#19 = EDGE_LOOP ( 'NONE', ( #126 ) ) ;
#20 = PLANE ( 'NONE',  #113 ) ;
#21 = CIRCLE ( 'NONE', #145, 2.250000000000000000 ) ;
#22 = PRODUCT_DEFINITION ( 'UNKNOWN', '', #194, #91 ) ;
#23 = SECURITY_CLASSIFICATION ( '', '', #170 ) ;
#24 = CLOSED_SHELL ( 'NONE', ( #75, #58, #95 ) ) ;
#25 = FACE_OUTER_BOUND ( 'NONE', #35, .T. ) ;
#26 = COORDINATED_UNIVERSAL_TIME_OFFSET ( 1, 0, .AHEAD. ) ;
#27 = DATE_TIME_ROLE ( 'classification_date' ) ;
#28 = CARTESIAN_POINT ( 'NONE',  ( -1.956096352934224574E-30, -2.250000000000000000, -5.602482622984195128E-16 ) ) ;
#29 = DATE_AND_TIME ( #184, #32 ) ;
#30 = CC_DESIGN_PERSON_AND_ORGANIZATION_ASSIGNMENT ( #13, #155, ( #194 ) ) ;
#31 = VERTEX_POINT ( 'NONE', #40 ) ;
#32 = LOCAL_TIME ( 15, 31, 27.00000000000000000, #84 ) ;
#33 = MANIFOLD_SOLID_BREP ( 'Corps-Déplacer/Copier1[1]', #118 ) ;
#34 = APPROVAL_ROLE ( '' ) ;
#35 = EDGE_LOOP ( 'NONE', ( #52 ) ) ;
#36 = ADVANCED_FACE ( 'NONE', ( #101 ), #152, .F. ) ;
#37 = ORGANIZATION ( 'UNSPECIFIED', 'UNSPECIFIED', '' ) ;
#38 = EDGE_CURVE ( 'NONE', #83, #83, #79, .T. ) ;
#39 = AXIS2_PLACEMENT_3D ( 'NONE', #180, #162, #220 ) ;
#40 = CARTESIAN_POINT ( 'NONE',  ( 1.990144363140586139E-13, 2.499999999999990230, 57.00000000000000000 ) ) ;
#41 = DIRECTION ( 'NONE',  ( 0.0000000000000000000, 1.000000000000000000, 0.0000000000000000000 ) ) ;
#42 = CIRCLE ( 'NONE', #4, 2.999999999999996447 ) ;
#43 = CARTESIAN_POINT ( 'NONE',  ( 1.972686956446370283E-13, 2.999999999999989786, 56.49999999999999289 ) ) ;
#44 = ADVANCED_FACE ( 'NONE', ( #110 ), #213, .F. ) ;
#45 = DIRECTION ( 'NONE',  ( -4.405084169291722739E-31, -1.000000000000000000, -1.244996138440932305E-16 ) ) ;
#46 = PERSON_AND_ORGANIZATION ( #9, #37 ) ;
#47 = VERTEX_POINT ( 'NONE', #28 ) ;
#48 = PERSON_AND_ORGANIZATION_ROLE ( 'design_supplier' ) ;
#49 = EDGE_CURVE ( 'NONE', #203, #203, #109, .T. ) ;
#50 = VERTEX_POINT ( 'NONE', #43 ) ;
#51 = APPROVAL_DATE_TIME ( #10, #168 ) ;
#52 = ORIENTED_EDGE ( 'NONE', *, *, #18, .T. ) ;
#53 = CARTESIAN_POINT ( 'NONE',  ( 3.840629472727446691E-14, 2.249639673992777927E-32, 11.00000000000000000 ) ) ;
#54 = EDGE_LOOP ( 'NONE', ( #143 ) ) ;
#55 = DIRECTION ( 'NONE',  ( 0.0000000000000000000, -1.000000000000000000, 0.0000000000000000000 ) ) ;
#56 = DIRECTION ( 'NONE',  ( -3.491481338843133355E-15, 1.244996138440932305E-16, -1.000000000000000000 ) ) ;
#57 = EDGE_LOOP ( 'NONE', ( #147 ) ) ;
#58 = ADVANCED_FACE ( 'NONE', ( #197, #119 ), #159, .T. ) ;
#59 = EDGE_LOOP ( 'NONE', ( #163 ) ) ;
#60 = AXIS2_PLACEMENT_3D ( 'NONE', #93, #208, #55 ) ;
#61 = FACE_BOUND ( 'NONE', #195, .T. ) ;
#62 = CARTESIAN_POINT ( 'NONE',  ( 1.972686956446370283E-13, -6.919254415182544548E-15, 56.49999999999999289 ) ) ;
#63 = PERSON_AND_ORGANIZATION ( #9, #37 ) ;
#64 = PERSON_AND_ORGANIZATION ( #9, #37 ) ;
#65 = CALENDAR_DATE ( 2021, 15, 11 ) ;
#66 = PERSON_AND_ORGANIZATION ( #9, #37 ) ;
#67 = COORDINATED_UNIVERSAL_TIME_OFFSET ( 1, 0, .AHEAD. ) ;
#68 = CARTESIAN_POINT ( 'NONE',  ( 5.021426575039752135E-14, -2.155773365691572769E-15, 14.38193731461715430 ) ) ;
#69 = EDGE_CURVE ( 'NONE', #47, #47, #21, .T. ) ;
#70 = ORIENTED_EDGE ( 'NONE', *, *, #18, .F. ) ;
#71 = AXIS2_PLACEMENT_3D ( 'NONE', #175, #177, #73 ) ;
#72 = APPROVAL ( #120, 'UNSPECIFIED' ) ;
#73 = DIRECTION ( 'NONE',  ( 0.0000000000000000000, -1.000000000000000000, 0.0000000000000000000 ) ) ;
#74 = LOCAL_TIME ( 15, 31, 27.00000000000000000, #223 ) ;
#75 = ADVANCED_FACE ( 'NONE', ( #206 ), #207, .T. ) ;
#76 = EDGE_LOOP ( 'NONE', ( #70 ) ) ;
#77 = EDGE_LOOP ( 'NONE', ( #174 ) ) ;
#78 = CIRCLE ( 'NONE', #181, 2.999999999999993783 ) ;
#79 = CIRCLE ( 'NONE', #60, 2.249999999999998224 ) ;
#80 = CC_DESIGN_SECURITY_CLASSIFICATION ( #23, ( #194 ) ) ;
#81 = DATE_AND_TIME ( #98, #96 ) ;
#82 = DIRECTION ( 'NONE',  ( -3.491481338843133355E-15, 1.224646799147353207E-16, -1.000000000000000000 ) ) ;
#83 = VERTEX_POINT ( 'NONE', #138 ) ;
#84 = COORDINATED_UNIVERSAL_TIME_OFFSET ( 1, 0, .AHEAD. ) ;
#85 = DIRECTION ( 'NONE',  ( -3.491481338843133355E-15, 1.224646799147353207E-16, -1.000000000000000000 ) ) ;
#86 = APPROVAL_STATUS ( 'not_yet_approved' ) ;
#87 = AXIS2_PLACEMENT_3D ( 'NONE', #196, #111, #210 ) ;
#88 = APPLICATION_CONTEXT ( 'configuration controlled 3d designs of mechanical parts and assemblies' ) ;
#89 = PERSON_AND_ORGANIZATION_ROLE ( 'creator' ) ;
#90 = CC_DESIGN_APPROVAL ( #168, ( #22 ) ) ;
#91 = DESIGN_CONTEXT ( 'detailed design', #88, 'design' ) ;
#92 = CC_DESIGN_PERSON_AND_ORGANIZATION_ASSIGNMENT ( #122, #186, ( #23 ) ) ;
#93 = CARTESIAN_POINT ( 'NONE',  ( 3.840629472727446060E-14, -1.369495752285025191E-15, 10.99999999999999822 ) ) ;
#94 = CARTESIAN_POINT ( 'NONE',  ( 0.0000000000000000000, 0.0000000000000000000, 0.0000000000000000000 ) ) ;
#95 = ADVANCED_FACE ( 'NONE', ( #211 ), #20, .F. ) ;
#96 = LOCAL_TIME ( 15, 31, 27.00000000000000000, #165 ) ;
#97 = EDGE_LOOP ( 'NONE', ( #209 ) ) ;
#98 = CALENDAR_DATE ( 2021, 15, 11 ) ;
#99 = DIRECTION ( 'NONE',  ( 3.491481338843133355E-15, -1.244996138440932305E-16, 1.000000000000000000 ) ) ;
#100 = APPROVAL_STATUS ( 'not_yet_approved' ) ;
#101 = FACE_OUTER_BOUND ( 'NONE', #146, .T. ) ;
#102 = DIRECTION ( 'NONE',  ( 3.491481338843133355E-15, -1.224646799147353207E-16, 1.000000000000000000 ) ) ;
#103 = DIRECTION ( 'NONE',  ( 3.491481338843133355E-15, -1.224646799147353207E-16, 1.000000000000000000 ) ) ;
#104 = MECHANICAL_CONTEXT ( 'NONE', #204, 'mechanical' ) ;
#105 =( LENGTH_UNIT ( ) NAMED_UNIT ( * ) SI_UNIT ( .MILLI., .METRE. ) );
#106 = DATE_TIME_ROLE ( 'creation_date' ) ;
#107 = APPROVAL_PERSON_ORGANIZATION ( #46, #168, #157 ) ;
#108 = FACE_OUTER_BOUND ( 'NONE', #59, .T. ) ;
#109 = CIRCLE ( 'NONE', #71, 2.249999999999998224 ) ;
#110 = FACE_OUTER_BOUND ( 'NONE', #77, .T. ) ;
#111 = DIRECTION ( 'NONE',  ( 3.491481338843133355E-15, -1.224646799147353207E-16, 1.000000000000000000 ) ) ;
#112 = ADVANCED_FACE ( 'NONE', ( #11, #25 ), #192, .F. ) ;
#113 = AXIS2_PLACEMENT_3D ( 'NONE', #212, #103, #185 ) ;
#114 = EDGE_CURVE ( 'NONE', #50, #50, #42, .T. ) ;
#115 = AXIS2_PLACEMENT_3D ( 'NONE', #53, #102, #173 ) ;
#116 = CYLINDRICAL_SURFACE ( 'NONE', #2, 2.999999999999993783 ) ;
#117 = ORIENTED_EDGE ( 'NONE', *, *, #49, .T. ) ;
#118 = CLOSED_SHELL ( 'NONE', ( #14, #128, #36, #112, #44 ) ) ;
#119 = FACE_OUTER_BOUND ( 'NONE', #57, .T. ) ;
#120 = APPROVAL_STATUS ( 'not_yet_approved' ) ;
#121 =( NAMED_UNIT ( * ) SI_UNIT ( $, .STERADIAN. ) SOLID_ANGLE_UNIT ( ) );
#122 = PERSON_AND_ORGANIZATION ( #9, #37 ) ;
#123 = DIRECTION ( 'NONE',  ( -4.346880784298276734E-31, -1.000000000000000000, -1.244996138440932305E-16 ) ) ;
#124 = CARTESIAN_POINT ( 'NONE',  ( 1.990144363140586139E-13, 1.874699728327309420E-32, 57.00000000000000000 ) ) ;
#125 = DATE_AND_TIME ( #139, #74 ) ;
#126 = ORIENTED_EDGE ( 'NONE', *, *, #114, .T. ) ;
#127 = AXIS2_PLACEMENT_3D ( 'NONE', #160, #149, #123 ) ;
#128 = ADVANCED_FACE ( 'NONE', ( #108, #61 ), #134, .T. ) ;
#129 = FACE_OUTER_BOUND ( 'NONE', #76, .T. ) ;
#130 = LOCAL_TIME ( 15, 31, 27.00000000000000000, #26 ) ;
#131 = CC_DESIGN_PERSON_AND_ORGANIZATION_ASSIGNMENT ( #66, #89, ( #22 ) ) ;
#132 = CIRCLE ( 'NONE', #140, 2.499999999999996891 ) ;
#133 = ORIENTED_EDGE ( 'NONE', *, *, #161, .T. ) ;
#134 = CONICAL_SURFACE ( 'NONE', #198, 2.499999999999996891, 0.7853981633974405074 ) ;
#135 = CARTESIAN_POINT ( 'NONE',  ( 1.990144363140586139E-13, -6.980486755139912911E-15, 57.00000000000000000 ) ) ;
#136 = DIRECTION ( 'NONE',  ( 0.0000000000000000000, 1.000000000000000000, 0.0000000000000000000 ) ) ;
#137 = DIRECTION ( 'NONE',  ( 0.0000000000000000000, 1.000000000000000000, 0.0000000000000000000 ) ) ;
#138 = CARTESIAN_POINT ( 'NONE',  ( 3.840629472727446060E-14, -2.249999999999999556, 10.99999999999999822 ) ) ;
#139 = CALENDAR_DATE ( 2021, 15, 11 ) ;
#140 = AXIS2_PLACEMENT_3D ( 'NONE', #200, #154, #137 ) ;
#141 = DIRECTION ( 'NONE',  ( 3.491481338843133355E-15, -1.244996138440932305E-16, 1.000000000000000000 ) ) ;
#142 = DIRECTION ( 'NONE',  ( 4.275831445896958607E-31, 1.000000000000000000, 1.224646799147353454E-16 ) ) ;
#143 = ORIENTED_EDGE ( 'NONE', *, *, #69, .F. ) ;
#144 =( GEOMETRIC_REPRESENTATION_CONTEXT ( 3 ) GLOBAL_UNCERTAINTY_ASSIGNED_CONTEXT ( ( #215 ) ) GLOBAL_UNIT_ASSIGNED_CONTEXT ( ( #105, #164, #121 ) ) REPRESENTATION_CONTEXT ( 'NONE', 'WORKASPACE' ) );
#145 = AXIS2_PLACEMENT_3D ( 'NONE', #188, #141, #12 ) ;
#146 = EDGE_LOOP ( 'NONE', ( #17 ) ) ;
#147 = ORIENTED_EDGE ( 'NONE', *, *, #38, .F. ) ;
#148 = PRODUCT_RELATED_PRODUCT_CATEGORY ( 'detail', '', ( #3 ) ) ;
#149 = DIRECTION ( 'NONE',  ( 3.491481338843133355E-15, -1.244996138440932305E-16, 1.000000000000000000 ) ) ;
#150 = FACE_OUTER_BOUND ( 'NONE', #19, .T. ) ;
#151 = PERSON_AND_ORGANIZATION ( #9, #37 ) ;
#152 = PLANE ( 'NONE',  #15 ) ;
#153 = LOCAL_TIME ( 15, 31, 27.00000000000000000, #67 ) ;
#154 = DIRECTION ( 'NONE',  ( -3.491481338843133355E-15, 1.224646799147353207E-16, -1.000000000000000000 ) ) ;
#155 = PERSON_AND_ORGANIZATION_ROLE ( 'creator' ) ;
#156 = CALENDAR_DATE ( 2021, 15, 11 ) ;
#157 = APPROVAL_ROLE ( '' ) ;
#158 = PRODUCT_DEFINITION_SHAPE ( 'NONE', 'NONE',  #22 ) ;
#159 = CYLINDRICAL_SURFACE ( 'NONE', #127, 2.249999999999999112 ) ;
#160 = CARTESIAN_POINT ( 'NONE',  ( 0.0000000000000000000, 0.0000000000000000000, 0.0000000000000000000 ) ) ;
#161 = EDGE_CURVE ( 'NONE', #31, #31, #132, .T. ) ;
#162 = DIRECTION ( 'NONE',  ( 0.0000000000000000000, 0.0000000000000000000, 1.000000000000000000 ) ) ;
#163 = ORIENTED_EDGE ( 'NONE', *, *, #114, .F. ) ;
#164 =( NAMED_UNIT ( * ) PLANE_ANGLE_UNIT ( ) SI_UNIT ( $, .RADIAN. ) );
#165 = COORDINATED_UNIVERSAL_TIME_OFFSET ( 1, 0, .AHEAD. ) ;
#166 = VERTEX_POINT ( 'NONE', #205 ) ;
#167 = SHAPE_DEFINITION_REPRESENTATION ( #158, #1 ) ;
#168 = APPROVAL ( #86, 'UNSPECIFIED' ) ;
#169 = CC_DESIGN_APPROVAL ( #222, ( #23 ) ) ;
#170 = SECURITY_CLASSIFICATION_LEVEL ( 'unclassified' ) ;
#171 = ORIENTED_EDGE ( 'NONE', *, *, #38, .T. ) ;
#172 = EDGE_LOOP ( 'NONE', ( #117 ) ) ;
#173 = DIRECTION ( 'NONE',  ( -4.275831445896958607E-31, -1.000000000000000000, -1.224646799147353207E-16 ) ) ;
#174 = ORIENTED_EDGE ( 'NONE', *, *, #49, .F. ) ;
#175 = CARTESIAN_POINT ( 'NONE',  ( 3.840629472727446060E-14, -1.369495752285025191E-15, 10.99999999999999822 ) ) ;
#176 = CC_DESIGN_DATE_AND_TIME_ASSIGNMENT ( #187, #27, ( #23 ) ) ;
#177 = DIRECTION ( 'NONE',  ( 3.491481338843133355E-15, -1.244996138440932305E-16, 1.000000000000000000 ) ) ;
#178 = DIRECTION ( 'NONE',  ( -3.491481338843133355E-15, 1.224646799147353207E-16, -1.000000000000000000 ) ) ;
#179 = MANIFOLD_SOLID_BREP ( 'Corps-Déplacer/Copier1[2]', #24 ) ;
#180 = CARTESIAN_POINT ( 'NONE',  ( 0.0000000000000000000, 0.0000000000000000000, 0.0000000000000000000 ) ) ;
#181 = AXIS2_PLACEMENT_3D ( 'NONE', #68, #56, #41 ) ;
#182 = APPLICATION_PROTOCOL_DEFINITION ( 'international standard', 'config_control_design', 1994, #204 ) ;
#183 = APPROVAL_PERSON_ORGANIZATION ( #151, #222, #199 ) ;
#184 = CALENDAR_DATE ( 2021, 15, 11 ) ;
#185 = DIRECTION ( 'NONE',  ( -4.275831445896958607E-31, -1.000000000000000000, -1.224646799147353207E-16 ) ) ;
#186 = PERSON_AND_ORGANIZATION_ROLE ( 'classification_officer' ) ;
#187 = DATE_AND_TIME ( #65, #130 ) ;
#188 = CARTESIAN_POINT ( 'NONE',  ( -9.780481764671122871E-31, 3.487534615648873897E-32, -2.801241311492097564E-16 ) ) ;
#189 = CC_DESIGN_PERSON_AND_ORGANIZATION_ASSIGNMENT ( #63, #202, ( #3 ) ) ;
#190 = APPROVAL_DATE_TIME ( #29, #72 ) ;
#191 = DIRECTION ( 'NONE',  ( -3.491481338843133355E-15, 1.224646799147353207E-16, -1.000000000000000000 ) ) ;
#192 = TOROIDAL_SURFACE ( 'NONE', #7, 10.25000000000000000, 8.000000000000000000 ) ;
#193 = EDGE_LOOP ( 'NONE', ( #171 ) ) ;
#194 = PRODUCT_DEFINITION_FORMATION_WITH_SPECIFIED_SOURCE ( 'ANY', '', #3, .NOT_KNOWN. ) ;
#195 = EDGE_LOOP ( 'NONE', ( #133 ) ) ;
#196 = CARTESIAN_POINT ( 'NONE',  ( 3.840629472727446691E-14, 2.249639673992777927E-32, 11.00000000000000000 ) ) ;
#197 = FACE_OUTER_BOUND ( 'NONE', #97, .T. ) ;
#198 = AXIS2_PLACEMENT_3D ( 'NONE', #135, #82, #201 ) ;
#199 = APPROVAL_ROLE ( '' ) ;
#200 = CARTESIAN_POINT ( 'NONE',  ( 1.990144363140586139E-13, -6.980486755139912911E-15, 57.00000000000000000 ) ) ;
#201 = DIRECTION ( 'NONE',  ( 0.0000000000000000000, 1.000000000000000000, 0.0000000000000000000 ) ) ;
#202 = PERSON_AND_ORGANIZATION_ROLE ( 'design_owner' ) ;
#203 = VERTEX_POINT ( 'NONE', #221 ) ;
#204 = APPLICATION_CONTEXT ( 'configuration controlled 3d designs of mechanical parts and assemblies' ) ;
#205 = CARTESIAN_POINT ( 'NONE',  ( 5.021426575039752135E-14, 2.999999999999992006, 14.38193731461715430 ) ) ;
#206 = FACE_OUTER_BOUND ( 'NONE', #193, .T. ) ;
#207 = PLANE ( 'NONE',  #115 ) ;
#208 = DIRECTION ( 'NONE',  ( 3.491481338843133355E-15, -1.244996138440932305E-16, 1.000000000000000000 ) ) ;
#209 = ORIENTED_EDGE ( 'NONE', *, *, #69, .T. ) ;
#210 = DIRECTION ( 'NONE',  ( -4.275831445896958607E-31, -1.000000000000000000, -1.224646799147353207E-16 ) ) ;
#211 = FACE_OUTER_BOUND ( 'NONE', #54, .T. ) ;
#212 = CARTESIAN_POINT ( 'NONE',  ( -1.282751684303709334E-30, 4.499287241798408962E-32, -3.673946843229401450E-16 ) ) ;
#213 = PLANE ( 'NONE',  #87 ) ;
#214 = DIRECTION ( 'NONE',  ( 4.275831445896958607E-31, 1.000000000000000000, 1.224646799147353207E-16 ) ) ;
#215 = UNCERTAINTY_MEASURE_WITH_UNIT (LENGTH_MEASURE( 1.000000000000000082E-05 ), #105, 'distance_accuracy_value', 'NONE');
#216 = CC_DESIGN_APPROVAL ( #72, ( #194 ) ) ;
#217 = CC_DESIGN_PERSON_AND_ORGANIZATION_ASSIGNMENT ( #64, #48, ( #194 ) ) ;
#218 = APPROVAL_PERSON_ORGANIZATION ( #16, #72, #34 ) ;
#219 = CARTESIAN_POINT ( 'NONE',  ( 3.840629472727446060E-14, -1.734723475976807094E-15, 10.99999999999999822 ) ) ;
#220 = DIRECTION ( 'NONE',  ( 1.000000000000000000, 0.0000000000000000000, 0.0000000000000000000 ) ) ;
#221 = CARTESIAN_POINT ( 'NONE',  ( 3.840629472727446060E-14, -2.249999999999999556, 10.99999999999999822 ) ) ;
#222 = APPROVAL ( #100, 'UNSPECIFIED' ) ;
#223 = COORDINATED_UNIVERSAL_TIME_OFFSET ( 1, 0, .AHEAD. ) ;
ENDSEC;
END-ISO-10303-21;
