ISO-10303-21;
HEADER;
FILE_DESCRIPTION (( 'STEP AP203' ),
    '1' );
FILE_NAME ('42123.step',
    '2021-11-15T14:31:27',
    ( '' ),
    ( '' ),
    'SwSTEP 2.0',
    'SolidWorks 2019',
    '' );
FILE_SCHEMA (( 'CONFIG_CONTROL_DESIGN' ));
ENDSEC;

DATA;
#1 = PRODUCT ( '42123', '42123', '', ( #217 ) ) ;
#2 = LOCAL_TIME ( 15, 31, 27.00000000000000000, #36 ) ;
#3 = DESIGN_CONTEXT ( 'detailed design', #15, 'design' ) ;
#4 = APPROVAL ( #113, 'UNSPECIFIED' ) ;
#5 = EDGE_LOOP ( 'NONE', ( #67 ) ) ;
#6 = CARTESIAN_POINT ( 'NONE',  ( 0.0000000000000000000, 0.0000000000000000000, 0.0000000000000000000 ) ) ;
#7 = EDGE_CURVE ( 'NONE', #50, #50, #207, .T. ) ;
#8 = FACE_OUTER_BOUND ( 'NONE', #127, .T. ) ;
#9 = EDGE_LOOP ( 'NONE', ( #197 ) ) ;
#10 = CARTESIAN_POINT ( 'NONE',  ( 3.840629472727446691E-14, 2.249639673992777927E-32, 11.00000000000000000 ) ) ;
#11 = DATE_TIME_ROLE ( 'creation_date' ) ;
#12 = SECURITY_CLASSIFICATION ( '', '', #117 ) ;
#13 = DIRECTION ( 'NONE',  ( 0.0000000000000000000, 1.000000000000000000, 0.0000000000000000000 ) ) ;
#14 = CC_DESIGN_DATE_AND_TIME_ASSIGNMENT ( #185, #11, ( #51 ) ) ;
#15 = APPLICATION_CONTEXT ( 'configuration controlled 3d designs of mechanical parts and assemblies' ) ;
#16 = PERSON_AND_ORGANIZATION ( #25, #124 ) ;
#17 = COORDINATED_UNIVERSAL_TIME_OFFSET ( 1, 0, .AHEAD. ) ;
#18 = CIRCLE ( 'NONE', #120, 1.999999999999999556 ) ;
#19 = VERTEX_POINT ( 'NONE', #194 ) ;
#20 = PRODUCT_DEFINITION_FORMATION_WITH_SPECIFIED_SOURCE ( 'ANY', '', #1, .NOT_KNOWN. ) ;
#21 = FACE_OUTER_BOUND ( 'NONE', #208, .T. ) ;
#22 = ADVANCED_FACE ( 'NONE', ( #44 ), #101, .F. ) ;
#23 = AXIS2_PLACEMENT_3D ( 'NONE', #72, #95, #184 ) ;
#24 = ORIENTED_EDGE ( 'NONE', *, *, #165, .T. ) ;
#25 = PERSON ( 'UNSPECIFIED', 'UNSPECIFIED', 'UNSPECIFIED', ('UNSPECIFIED'), ('UNSPECIFIED'), ('UNSPECIFIED') ) ;
#26 = ADVANCED_FACE ( 'NONE', ( #56, #21 ), #137, .F. ) ;
#27 = FACE_OUTER_BOUND ( 'NONE', #131, .T. ) ;
#28 = CC_DESIGN_PERSON_AND_ORGANIZATION_ASSIGNMENT ( #69, #59, ( #51 ) ) ;
#29 = DIRECTION ( 'NONE',  ( -3.491481338843133355E-15, 1.224646799147353207E-16, -1.000000000000000000 ) ) ;
#30 = PERSON_AND_ORGANIZATION ( #25, #124 ) ;
#31 = ADVANCED_FACE ( 'NONE', ( #8 ), #178, .F. ) ;
#32 = LOCAL_TIME ( 15, 31, 27.00000000000000000, #61 ) ;
#33 = DATE_TIME_ROLE ( 'classification_date' ) ;
#34 = CARTESIAN_POINT ( 'NONE',  ( 3.840629472727446691E-14, 2.249639673992777927E-32, 11.00000000000000000 ) ) ;
#35 = FACE_OUTER_BOUND ( 'NONE', #82, .T. ) ;
#36 = COORDINATED_UNIVERSAL_TIME_OFFSET ( 1, 0, .AHEAD. ) ;
#37 = VERTEX_POINT ( 'NONE', #172 ) ;
#38 = PERSON_AND_ORGANIZATION_ROLE ( 'design_supplier' ) ;
#39 = ORIENTED_EDGE ( 'NONE', *, *, #165, .F. ) ;
#40 = EDGE_LOOP ( 'NONE', ( #85 ) ) ;
#41 = ORIENTED_EDGE ( 'NONE', *, *, #142, .T. ) ;
#42 = ORIENTED_EDGE ( 'NONE', *, *, #142, .F. ) ;
#43 = APPROVAL ( #90, 'UNSPECIFIED' ) ;
#44 = FACE_OUTER_BOUND ( 'NONE', #179, .T. ) ;
#45 = DIRECTION ( 'NONE',  ( 3.491481338843133355E-15, -1.224646799147353207E-16, 1.000000000000000000 ) ) ;
#46 = APPROVAL_DATE_TIME ( #203, #43 ) ;
#47 = CC_DESIGN_APPROVAL ( #43, ( #20 ) ) ;
#48 = APPLICATION_CONTEXT ( 'configuration controlled 3d designs of mechanical parts and assemblies' ) ;
#49 = PERSON_AND_ORGANIZATION ( #25, #124 ) ;
#50 = VERTEX_POINT ( 'NONE', #114 ) ;
#51 = PRODUCT_DEFINITION ( 'UNKNOWN', '', #20, #3 ) ;
#52 = CARTESIAN_POINT ( 'NONE',  ( 3.840629472727446691E-14, -2.000000000000000888, 11.00000000000000000 ) ) ;
#53 = LOCAL_TIME ( 15, 31, 27.00000000000000000, #17 ) ;
#54 = EDGE_LOOP ( 'NONE', ( #39 ) ) ;
#55 = DIRECTION ( 'NONE',  ( 0.0000000000000000000, 1.000000000000000000, 0.0000000000000000000 ) ) ;
#56 = FACE_OUTER_BOUND ( 'NONE', #176, .T. ) ;
#57 = AXIS2_PLACEMENT_3D ( 'NONE', #222, #202, #13 ) ;
#58 = DIRECTION ( 'NONE',  ( -4.405892549638853520E-31, -1.000000000000000000, -1.244996138440932305E-16 ) ) ;
#59 = PERSON_AND_ORGANIZATION_ROLE ( 'creator' ) ;
#60 = ORIENTED_EDGE ( 'NONE', *, *, #209, .F. ) ;
#61 = COORDINATED_UNIVERSAL_TIME_OFFSET ( 1, 0, .AHEAD. ) ;
#62 = DIRECTION ( 'NONE',  ( 3.491481338843133355E-15, -1.244996138440932305E-16, 1.000000000000000000 ) ) ;
#63 = DIRECTION ( 'NONE',  ( -3.491481338843133355E-15, 1.224646799147353207E-16, -1.000000000000000000 ) ) ;
#64 = DATE_AND_TIME ( #96, #2 ) ;
#65 = VERTEX_POINT ( 'NONE', #153 ) ;
#66 = ADVANCED_FACE ( 'NONE', ( #129, #83 ), #158, .T. ) ;
#67 = ORIENTED_EDGE ( 'NONE', *, *, #7, .T. ) ;
#68 = DIRECTION ( 'NONE',  ( -3.491481338843133355E-15, 1.224646799147353207E-16, -1.000000000000000000 ) ) ;
#69 = PERSON_AND_ORGANIZATION ( #25, #124 ) ;
#70 = CYLINDRICAL_SURFACE ( 'NONE', #100, 2.000000000000000000 ) ;
#71 = COORDINATED_UNIVERSAL_TIME_OFFSET ( 1, 0, .AHEAD. ) ;
#72 = CARTESIAN_POINT ( 'NONE',  ( -8.693761568596553469E-31, 3.100030769465665930E-32, -2.489992276881864611E-16 ) ) ;
#73 = APPROVAL_DATE_TIME ( #64, #4 ) ;
#74 = CALENDAR_DATE ( 2021, 15, 11 ) ;
#75 = DIRECTION ( 'NONE',  ( -4.275831445896958607E-31, -1.000000000000000000, -1.224646799147353207E-16 ) ) ;
#76 = PLANE ( 'NONE',  #187 ) ;
#77 = DATE_AND_TIME ( #133, #53 ) ;
#78 = AXIS2_PLACEMENT_3D ( 'NONE', #6, #139, #199 ) ;
#79 = CIRCLE ( 'NONE', #216, 1.999999999999999556 ) ;
#80 = CIRCLE ( 'NONE', #212, 2.999999999999996447 ) ;
#81 = CC_DESIGN_PERSON_AND_ORGANIZATION_ASSIGNMENT ( #143, #198, ( #1 ) ) ;
#82 = EDGE_LOOP ( 'NONE', ( #60 ) ) ;
#83 = FACE_OUTER_BOUND ( 'NONE', #54, .T. ) ;
#84 = CARTESIAN_POINT ( 'NONE',  ( 1.990144363140586139E-13, 1.874699728327309420E-32, 57.00000000000000000 ) ) ;
#85 = ORIENTED_EDGE ( 'NONE', *, *, #118, .F. ) ;
#86 = CALENDAR_DATE ( 2021, 15, 11 ) ;
#87 = FACE_OUTER_BOUND ( 'NONE', #40, .T. ) ;
#88 = MANIFOLD_SOLID_BREP ( 'Corps-Déplacer/Copier1[1]', #152 ) ;
#89 = AXIS2_PLACEMENT_3D ( 'NONE', #84, #159, #140 ) ;
#90 = APPROVAL_STATUS ( 'not_yet_approved' ) ;
#91 = DIRECTION ( 'NONE',  ( -4.346880784298277610E-31, -1.000000000000000000, -1.244996138440932305E-16 ) ) ;
#92 = COORDINATED_UNIVERSAL_TIME_OFFSET ( 1, 0, .AHEAD. ) ;
#93 = FACE_OUTER_BOUND ( 'NONE', #9, .T. ) ;
#94 = DIRECTION ( 'NONE',  ( 0.0000000000000000000, 0.0000000000000000000, 1.000000000000000000 ) ) ;
#95 = DIRECTION ( 'NONE',  ( 3.491481338843133355E-15, -1.244996138440932305E-16, 1.000000000000000000 ) ) ;
#96 = CALENDAR_DATE ( 2021, 15, 11 ) ;
#97 = CARTESIAN_POINT ( 'NONE',  ( 3.840629472727446691E-14, -1.369495752285025388E-15, 11.00000000000000000 ) ) ;
#98 = CC_DESIGN_PERSON_AND_ORGANIZATION_ASSIGNMENT ( #16, #206, ( #12 ) ) ;
#99 = PERSON_AND_ORGANIZATION ( #25, #124 ) ;
#100 = AXIS2_PLACEMENT_3D ( 'NONE', #214, #189, #91 ) ;
#101 = PLANE ( 'NONE',  #193 ) ;
#102 = UNCERTAINTY_MEASURE_WITH_UNIT (LENGTH_MEASURE( 1.000000000000000082E-05 ), #115, 'distance_accuracy_value', 'NONE');
#103 = APPROVAL_PERSON_ORGANIZATION ( #215, #175, #181 ) ;
#104 = ORIENTED_EDGE ( 'NONE', *, *, #191, .F. ) ;
#105 = APPLICATION_PROTOCOL_DEFINITION ( 'international standard', 'config_control_design', 1994, #15 ) ;
#106 = DIRECTION ( 'NONE',  ( 3.491481338843133355E-15, -1.224646799147353207E-16, 1.000000000000000000 ) ) ;
#107 = AXIS2_PLACEMENT_3D ( 'NONE', #144, #123, #58 ) ;
#108 = APPROVAL_STATUS ( 'not_yet_approved' ) ;
#109 = DIRECTION ( 'NONE',  ( -4.275831445896958607E-31, -1.000000000000000000, -1.224646799147353207E-16 ) ) ;
#110 = DIRECTION ( 'NONE',  ( 1.000000000000000000, 0.0000000000000000000, 0.0000000000000000000 ) ) ;
#111 = CC_DESIGN_APPROVAL ( #175, ( #51 ) ) ;
#112 = CC_DESIGN_PERSON_AND_ORGANIZATION_ASSIGNMENT ( #99, #38, ( #20 ) ) ;
#113 = APPROVAL_STATUS ( 'not_yet_approved' ) ;
#114 = CARTESIAN_POINT ( 'NONE',  ( 1.990144363140586139E-13, 2.499999999999990230, 57.00000000000000000 ) ) ;
#115 =( LENGTH_UNIT ( ) NAMED_UNIT ( * ) SI_UNIT ( .MILLI., .METRE. ) );
#116 = AXIS2_PLACEMENT_3D ( 'NONE', #145, #94, #110 ) ;
#117 = SECURITY_CLASSIFICATION_LEVEL ( 'unclassified' ) ;
#118 = EDGE_CURVE ( 'NONE', #37, #37, #18, .T. ) ;
#119 = ADVANCED_BREP_SHAPE_REPRESENTATION ( '42123', ( #88, #174, #116 ), #211 ) ;
#120 = AXIS2_PLACEMENT_3D ( 'NONE', #196, #210, #182 ) ;
#121 = ORIENTED_EDGE ( 'NONE', *, *, #191, .T. ) ;
#122 = ADVANCED_FACE ( 'NONE', ( #27, #87 ), #70, .T. ) ;
#123 = DIRECTION ( 'NONE',  ( 3.491481338843133355E-15, -1.244996138440932305E-16, 1.000000000000000000 ) ) ;
#124 = ORGANIZATION ( 'UNSPECIFIED', 'UNSPECIFIED', '' ) ;
#125 = SHAPE_DEFINITION_REPRESENTATION ( #154, #119 ) ;
#126 = CC_DESIGN_SECURITY_CLASSIFICATION ( #12, ( #20 ) ) ;
#127 = EDGE_LOOP ( 'NONE', ( #162 ) ) ;
#128 = APPLICATION_PROTOCOL_DEFINITION ( 'international standard', 'config_control_design', 1994, #48 ) ;
#129 = FACE_OUTER_BOUND ( 'NONE', #195, .T. ) ;
#130 =( NAMED_UNIT ( * ) SI_UNIT ( $, .STERADIAN. ) SOLID_ANGLE_UNIT ( ) );
#131 = EDGE_LOOP ( 'NONE', ( #41 ) ) ;
#132 = FACE_BOUND ( 'NONE', #5, .T. ) ;
#133 = CALENDAR_DATE ( 2021, 15, 11 ) ;
#134 = VERTEX_POINT ( 'NONE', #52 ) ;
#135 = CONICAL_SURFACE ( 'NONE', #149, 2.499999999999996891, 0.7853981633974405074 ) ;
#136 = CC_DESIGN_APPROVAL ( #4, ( #12 ) ) ;
#137 = TOROIDAL_SURFACE ( 'NONE', #107, 10.00000000000000000, 8.000000000000000000 ) ;
#138 = ORIENTED_EDGE ( 'NONE', *, *, #209, .T. ) ;
#139 = DIRECTION ( 'NONE',  ( -3.491481338843133355E-15, 1.224646799147353207E-16, -1.000000000000000000 ) ) ;
#140 = DIRECTION ( 'NONE',  ( 4.275831445896958607E-31, 1.000000000000000000, 1.224646799147353207E-16 ) ) ;
#141 = LOCAL_TIME ( 15, 31, 27.00000000000000000, #92 ) ;
#142 = EDGE_CURVE ( 'NONE', #19, #19, #171, .T. ) ;
#143 = PERSON_AND_ORGANIZATION ( #25, #124 ) ;
#144 = CARTESIAN_POINT ( 'NONE',  ( 3.840629472727446060E-14, -1.734723475976807094E-15, 10.99999999999999822 ) ) ;
#145 = CARTESIAN_POINT ( 'NONE',  ( 0.0000000000000000000, 0.0000000000000000000, 0.0000000000000000000 ) ) ;
#146 = DIRECTION ( 'NONE',  ( -4.275831445896958607E-31, -1.000000000000000000, -1.224646799147353207E-16 ) ) ;
#147 = CALENDAR_DATE ( 2021, 15, 11 ) ;
#148 = CARTESIAN_POINT ( 'NONE',  ( 1.972686956446370283E-13, -6.919254415182544548E-15, 56.49999999999999289 ) ) ;
#149 = AXIS2_PLACEMENT_3D ( 'NONE', #151, #63, #204 ) ;
#150 = CLOSED_SHELL ( 'NONE', ( #160, #122, #22 ) ) ;
#151 = CARTESIAN_POINT ( 'NONE',  ( 1.990144363140586139E-13, -6.980486755139912911E-15, 57.00000000000000000 ) ) ;
#152 = CLOSED_SHELL ( 'NONE', ( #66, #219, #31, #26, #173 ) ) ;
#153 = CARTESIAN_POINT ( 'NONE',  ( 1.972686956446370283E-13, 2.999999999999989786, 56.49999999999999289 ) ) ;
#154 = PRODUCT_DEFINITION_SHAPE ( 'NONE', 'NONE',  #51 ) ;
#155 = EDGE_LOOP ( 'NONE', ( #104 ) ) ;
#156 = LOCAL_TIME ( 15, 31, 27.00000000000000000, #71 ) ;
#157 = AXIS2_PLACEMENT_3D ( 'NONE', #161, #68, #55 ) ;
#158 = CYLINDRICAL_SURFACE ( 'NONE', #78, 2.999999999999993783 ) ;
#159 = DIRECTION ( 'NONE',  ( -3.491481338843133355E-15, 1.224646799147353207E-16, -1.000000000000000000 ) ) ;
#160 = ADVANCED_FACE ( 'NONE', ( #93 ), #166, .T. ) ;
#161 = CARTESIAN_POINT ( 'NONE',  ( 1.990144363140586139E-13, -6.980486755139912911E-15, 57.00000000000000000 ) ) ;
#162 = ORIENTED_EDGE ( 'NONE', *, *, #7, .F. ) ;
#163 = APPROVAL_ROLE ( '' ) ;
#164 = APPROVAL_DATE_TIME ( #183, #175 ) ;
#165 = EDGE_CURVE ( 'NONE', #192, #192, #167, .T. ) ;
#166 = PLANE ( 'NONE',  #190 ) ;
#167 = CIRCLE ( 'NONE', #57, 2.999999999999993783 ) ;
#168 = CC_DESIGN_DATE_AND_TIME_ASSIGNMENT ( #77, #33, ( #12 ) ) ;
#169 = PERSON_AND_ORGANIZATION_ROLE ( 'creator' ) ;
#170 = CARTESIAN_POINT ( 'NONE',  ( 5.192874380620784772E-14, 2.999999999999992006, 14.87298334620740192 ) ) ;
#171 = CIRCLE ( 'NONE', #23, 2.000000000000000000 ) ;
#172 = CARTESIAN_POINT ( 'NONE',  ( 3.840629472727446691E-14, -2.000000000000000888, 11.00000000000000000 ) ) ;
#173 = ADVANCED_FACE ( 'NONE', ( #35 ), #76, .F. ) ;
#174 = MANIFOLD_SOLID_BREP ( 'Corps-Déplacer/Copier1[2]', #150 ) ;
#175 = APPROVAL ( #108, 'UNSPECIFIED' ) ;
#176 = EDGE_LOOP ( 'NONE', ( #138 ) ) ;
#177 = APPROVAL_PERSON_ORGANIZATION ( #49, #4, #223 ) ;
#178 = PLANE ( 'NONE',  #89 ) ;
#179 = EDGE_LOOP ( 'NONE', ( #42 ) ) ;
#180 = PRODUCT_RELATED_PRODUCT_CATEGORY ( 'detail', '', ( #1 ) ) ;
#181 = APPROVAL_ROLE ( '' ) ;
#182 = DIRECTION ( 'NONE',  ( 0.0000000000000000000, -1.000000000000000000, 0.0000000000000000000 ) ) ;
#183 = DATE_AND_TIME ( #86, #141 ) ;
#184 = DIRECTION ( 'NONE',  ( -4.346880784298278486E-31, -1.000000000000000000, -1.244996138440932305E-16 ) ) ;
#185 = DATE_AND_TIME ( #147, #156 ) ;
#186 = CC_DESIGN_PERSON_AND_ORGANIZATION_ASSIGNMENT ( #30, #169, ( #20 ) ) ;
#187 = AXIS2_PLACEMENT_3D ( 'NONE', #34, #45, #109 ) ;
#188 =( NAMED_UNIT ( * ) PLANE_ANGLE_UNIT ( ) SI_UNIT ( $, .RADIAN. ) );
#189 = DIRECTION ( 'NONE',  ( 3.491481338843133355E-15, -1.244996138440932305E-16, 1.000000000000000000 ) ) ;
#190 = AXIS2_PLACEMENT_3D ( 'NONE', #10, #221, #75 ) ;
#191 = EDGE_CURVE ( 'NONE', #65, #65, #80, .T. ) ;
#192 = VERTEX_POINT ( 'NONE', #170 ) ;
#193 = AXIS2_PLACEMENT_3D ( 'NONE', #213, #106, #146 ) ;
#194 = CARTESIAN_POINT ( 'NONE',  ( -1.738752313719311044E-30, -2.000000000000000000, -4.979984553763729221E-16 ) ) ;
#195 = EDGE_LOOP ( 'NONE', ( #121 ) ) ;
#196 = CARTESIAN_POINT ( 'NONE',  ( 3.840629472727446691E-14, -1.369495752285025388E-15, 11.00000000000000000 ) ) ;
#197 = ORIENTED_EDGE ( 'NONE', *, *, #118, .T. ) ;
#198 = PERSON_AND_ORGANIZATION_ROLE ( 'design_owner' ) ;
#199 = DIRECTION ( 'NONE',  ( 4.275831445896958607E-31, 1.000000000000000000, 1.224646799147353454E-16 ) ) ;
#200 = PERSON_AND_ORGANIZATION ( #25, #124 ) ;
#201 = APPROVAL_PERSON_ORGANIZATION ( #200, #43, #163 ) ;
#202 = DIRECTION ( 'NONE',  ( -3.491481338843133355E-15, 1.244996138440932305E-16, -1.000000000000000000 ) ) ;
#203 = DATE_AND_TIME ( #74, #32 ) ;
#204 = DIRECTION ( 'NONE',  ( 0.0000000000000000000, 1.000000000000000000, 0.0000000000000000000 ) ) ;
#205 = FACE_OUTER_BOUND ( 'NONE', #155, .T. ) ;
#206 = PERSON_AND_ORGANIZATION_ROLE ( 'classification_officer' ) ;
#207 = CIRCLE ( 'NONE', #157, 2.499999999999996891 ) ;
#208 = EDGE_LOOP ( 'NONE', ( #24 ) ) ;
#209 = EDGE_CURVE ( 'NONE', #134, #134, #79, .T. ) ;
#210 = DIRECTION ( 'NONE',  ( 3.491481338843133355E-15, -1.244996138440932305E-16, 1.000000000000000000 ) ) ;
#211 =( GEOMETRIC_REPRESENTATION_CONTEXT ( 3 ) GLOBAL_UNCERTAINTY_ASSIGNED_CONTEXT ( ( #102 ) ) GLOBAL_UNIT_ASSIGNED_CONTEXT ( ( #115, #188, #130 ) ) REPRESENTATION_CONTEXT ( 'NONE', 'WORKASPACE' ) );
#212 = AXIS2_PLACEMENT_3D ( 'NONE', #148, #29, #218 ) ;
#213 = CARTESIAN_POINT ( 'NONE',  ( -1.282751684303709334E-30, 4.499287241798408962E-32, -3.673946843229401450E-16 ) ) ;
#214 = CARTESIAN_POINT ( 'NONE',  ( 0.0000000000000000000, 0.0000000000000000000, 0.0000000000000000000 ) ) ;
#215 = PERSON_AND_ORGANIZATION ( #25, #124 ) ;
#216 = AXIS2_PLACEMENT_3D ( 'NONE', #97, #62, #220 ) ;
#217 = MECHANICAL_CONTEXT ( 'NONE', #48, 'mechanical' ) ;
#218 = DIRECTION ( 'NONE',  ( 0.0000000000000000000, 1.000000000000000000, 0.0000000000000000000 ) ) ;
#219 = ADVANCED_FACE ( 'NONE', ( #205, #132 ), #135, .T. ) ;
#220 = DIRECTION ( 'NONE',  ( 0.0000000000000000000, -1.000000000000000000, 0.0000000000000000000 ) ) ;
#221 = DIRECTION ( 'NONE',  ( 3.491481338843133355E-15, -1.224646799147353207E-16, 1.000000000000000000 ) ) ;
#222 = CARTESIAN_POINT ( 'NONE',  ( 5.192874380620784772E-14, -2.216908407004233123E-15, 14.87298334620740192 ) ) ;
#223 = APPROVAL_ROLE ( '' ) ;
ENDSEC;
END-ISO-10303-21;
