ISO-10303-21;
HEADER;
FILE_DESCRIPTION (( 'STEP AP203' ),
    '1' );
FILE_NAME ('42119.step',
    '2021-10-07T13:48:00',
    ( '' ),
    ( '' ),
    'SwSTEP 2.0',
    'SolidWorks 2019',
    '' );
FILE_SCHEMA (( 'CONFIG_CONTROL_DESIGN' ));
ENDSEC;

DATA;
#1 = VERTEX_POINT ( 'NONE', #116 ) ;
#2 = DATE_AND_TIME ( #77, #45 ) ;
#3 = APPROVAL_PERSON_ORGANIZATION ( #152, #176, #19 ) ;
#4 = APPROVAL_STATUS ( 'not_yet_approved' ) ;
#5 = DIRECTION ( 'NONE',  ( 0.0000000000000000000, 0.0000000000000000000, 1.000000000000000000 ) ) ;
#6 = EDGE_CURVE ( 'NONE', #31, #31, #7, .T. ) ;
#7 = CIRCLE ( 'NONE', #221, 0.9999999999999970024 ) ;
#8 = ORIENTED_EDGE ( 'NONE', *, *, #179, .T. ) ;
#9 = AXIS2_PLACEMENT_3D ( 'NONE', #66, #27, #148 ) ;
#10 = DIRECTION ( 'NONE',  ( 4.119636244678607325E-31, 1.000000000000000000, 1.159574516027285340E-16 ) ) ;
#11 = DIRECTION ( 'NONE',  ( 0.0000000000000000000, -1.000000000000000000, 0.0000000000000000000 ) ) ;
#12 = CARTESIAN_POINT ( 'NONE',  ( 1.326762908760390423E-13, -4.653657836759941941E-15, 38.00000000000000000 ) ) ;
#13 = APPLICATION_CONTEXT ( 'configuration controlled 3d designs of mechanical parts and assemblies' ) ;
#14 = VERTEX_POINT ( 'NONE', #150 ) ;
#15 = FACE_OUTER_BOUND ( 'NONE', #41, .T. ) ;
#16 = CLOSED_SHELL ( 'NONE', ( #137, #56, #123 ) ) ;
#17 = PRODUCT_DEFINITION_SHAPE ( 'NONE', 'NONE',  #185 ) ;
#18 = CARTESIAN_POINT ( 'NONE',  ( 0.0000000000000000000, 0.0000000000000000000, 0.0000000000000000000 ) ) ;
#19 = APPROVAL_ROLE ( '' ) ;
#20 = SECURITY_CLASSIFICATION_LEVEL ( 'unclassified' ) ;
#21 = LOCAL_TIME ( 15, 48, 0.0000000000000000000, #91 ) ;
#22 = COORDINATED_UNIVERSAL_TIME_OFFSET ( 1, 0, .AHEAD. ) ;
#23 = APPROVAL ( #4, 'UNSPECIFIED' ) ;
#24 = AXIS2_PLACEMENT_3D ( 'NONE', #178, #147, #95 ) ;
#25 = AXIS2_PLACEMENT_3D ( 'NONE', #197, #110, #10 ) ;
#26 = ORIENTED_EDGE ( 'NONE', *, *, #179, .F. ) ;
#27 = DIRECTION ( 'NONE',  ( 3.491481338843133355E-15, -1.224646799147353207E-16, 1.000000000000000000 ) ) ;
#28 = ADVANCED_FACE ( 'NONE', ( #212, #43 ), #120, .T. ) ;
#29 = CARTESIAN_POINT ( 'NONE',  ( 0.0000000000000000000, 0.0000000000000000000, 0.0000000000000000000 ) ) ;
#30 = AXIS2_PLACEMENT_3D ( 'NONE', #29, #46, #49 ) ;
#31 = VERTEX_POINT ( 'NONE', #99 ) ;
#32 = DIRECTION ( 'NONE',  ( 3.491481338843133355E-15, -1.224646799147353207E-16, 1.000000000000000000 ) ) ;
#33 = MANIFOLD_SOLID_BREP ( 'Corps-Déplacer/Copier1[2]', #16 ) ;
#34 = DIRECTION ( 'NONE',  ( -4.119636244678607325E-31, -1.000000000000000000, -1.159574516027285340E-16 ) ) ;
#35 = APPLICATION_PROTOCOL_DEFINITION ( 'international standard', 'config_control_design', 1994, #13 ) ;
#36 = PERSON_AND_ORGANIZATION_ROLE ( 'creator' ) ;
#37 = DATE_AND_TIME ( #171, #213 ) ;
#38 = PRODUCT_DEFINITION_FORMATION_WITH_SPECIFIED_SOURCE ( 'ANY', '', #188, .NOT_KNOWN. ) ;
#39 = APPLICATION_PROTOCOL_DEFINITION ( 'international standard', 'config_control_design', 1994, #108 ) ;
#40 = CC_DESIGN_PERSON_AND_ORGANIZATION_ASSIGNMENT ( #192, #153, ( #188 ) ) ;
#41 = EDGE_LOOP ( 'NONE', ( #175 ) ) ;
#42 = AXIS2_PLACEMENT_3D ( 'NONE', #131, #199, #181 ) ;
#43 = FACE_OUTER_BOUND ( 'NONE', #141, .T. ) ;
#44 = EDGE_LOOP ( 'NONE', ( #80 ) ) ;
#45 = LOCAL_TIME ( 15, 48, 0.0000000000000000000, #154 ) ;
#46 = DIRECTION ( 'NONE',  ( -3.491481338843133355E-15, 1.224646799147353207E-16, -1.000000000000000000 ) ) ;
#47 = DESIGN_CONTEXT ( 'detailed design', #108, 'design' ) ;
#48 = DIRECTION ( 'NONE',  ( 0.0000000000000000000, 1.000000000000000000, 0.0000000000000000000 ) ) ;
#49 = DIRECTION ( 'NONE',  ( 4.275831445896958607E-31, 1.000000000000000000, 1.224646799147353207E-16 ) ) ;
#50 = CIRCLE ( 'NONE', #25, 0.9349999999999937250 ) ;
#51 = PERSON ( 'UNSPECIFIED', 'UNSPECIFIED', 'UNSPECIFIED', ('UNSPECIFIED'), ('UNSPECIFIED'), ('UNSPECIFIED') ) ;
#52 = CARTESIAN_POINT ( 'NONE',  ( 1.961530552072738384E-15, 0.9349999999999936140, 0.5618046787907712281 ) ) ;
#53 = FACE_OUTER_BOUND ( 'NONE', #159, .T. ) ;
#54 = MECHANICAL_CONTEXT ( 'NONE', #13, 'mechanical' ) ;
#55 = COORDINATED_UNIVERSAL_TIME_OFFSET ( 1, 0, .AHEAD. ) ;
#56 = ADVANCED_FACE ( 'NONE', ( #114, #222 ), #217, .T. ) ;
#57 = CALENDAR_DATE ( 2021, 7, 10 ) ;
#58 = SHAPE_DEFINITION_REPRESENTATION ( #17, #138 ) ;
#59 = ORIENTED_EDGE ( 'NONE', *, *, #71, .T. ) ;
#60 = EDGE_LOOP ( 'NONE', ( #126 ) ) ;
#61 = DIRECTION ( 'NONE',  ( -3.491481338843133355E-15, 1.224646799147353207E-16, -1.000000000000000000 ) ) ;
#62 = CC_DESIGN_DATE_AND_TIME_ASSIGNMENT ( #2, #119, ( #193 ) ) ;
#63 = CC_DESIGN_DATE_AND_TIME_ASSIGNMENT ( #223, #72, ( #185 ) ) ;
#64 = PLANE ( 'NONE',  #9 ) ;
#65 = CIRCLE ( 'NONE', #128, 0.9349999999999937250 ) ;
#66 = CARTESIAN_POINT ( 'NONE',  ( 4.189777606611760026E-14, 7.011376983944115073E-33, 12.00000000000000000 ) ) ;
#67 = FACE_OUTER_BOUND ( 'NONE', #92, .T. ) ;
#68 = CARTESIAN_POINT ( 'NONE',  ( 4.189777606611760026E-14, 0.9349999999999922817, 12.00000000000000000 ) ) ;
#69 = CONICAL_SURFACE ( 'NONE', #89, 0.9349999999999937250, 1.029744258676649871 ) ;
#70 = DIRECTION ( 'NONE',  ( 0.0000000000000000000, 1.000000000000000000, 0.0000000000000000000 ) ) ;
#71 = EDGE_CURVE ( 'NONE', #14, #14, #180, .T. ) ;
#72 = DATE_TIME_ROLE ( 'creation_date' ) ;
#73 =( NAMED_UNIT ( * ) PLANE_ANGLE_UNIT ( ) SI_UNIT ( $, .RADIAN. ) );
#74 = EDGE_CURVE ( 'NONE', #220, #220, #200, .T. ) ;
#75 = AXIS2_PLACEMENT_3D ( 'NONE', #18, #5, #190 ) ;
#76 = APPROVAL_DATE_TIME ( #87, #168 ) ;
#77 = CALENDAR_DATE ( 2021, 7, 10 ) ;
#78 = APPROVAL_PERSON_ORGANIZATION ( #170, #23, #145 ) ;
#79 = EDGE_LOOP ( 'NONE', ( #195 ) ) ;
#80 = ORIENTED_EDGE ( 'NONE', *, *, #74, .T. ) ;
#81 = CLOSED_SHELL ( 'NONE', ( #136, #28, #202, #186, #172 ) ) ;
#82 = DIRECTION ( 'NONE',  ( -3.491481338843133355E-15, 1.224646799147353207E-16, -1.000000000000000000 ) ) ;
#83 = FACE_OUTER_BOUND ( 'NONE', #125, .T. ) ;
#84 = FACE_BOUND ( 'NONE', #215, .T. ) ;
#85 = CARTESIAN_POINT ( 'NONE',  ( 4.189777606611760026E-14, -1.469576158976823947E-15, 12.00000000000000000 ) ) ;
#86 = DIRECTION ( 'NONE',  ( -4.275831445896958607E-31, -1.000000000000000000, -1.224646799147353207E-16 ) ) ;
#87 = DATE_AND_TIME ( #208, #140 ) ;
#88 = PERSON_AND_ORGANIZATION_ROLE ( 'classification_officer' ) ;
#89 = AXIS2_PLACEMENT_3D ( 'NONE', #165, #115, #34 ) ;
#90 =( LENGTH_UNIT ( ) NAMED_UNIT ( * ) SI_UNIT ( .MILLI., .METRE. ) );
#91 = COORDINATED_UNIVERSAL_TIME_OFFSET ( 1, 0, .AHEAD. ) ;
#92 = EDGE_LOOP ( 'NONE', ( #8 ) ) ;
#93 = AXIS2_PLACEMENT_3D ( 'NONE', #182, #151, #11 ) ;
#94 = ORIENTED_EDGE ( 'NONE', *, *, #97, .T. ) ;
#95 = DIRECTION ( 'NONE',  ( 0.0000000000000000000, 1.000000000000000000, 0.0000000000000000000 ) ) ;
#96 = AXIS2_PLACEMENT_3D ( 'NONE', #85, #82, #70 ) ;
#97 = EDGE_CURVE ( 'NONE', #132, #132, #50, .T. ) ;
#98 = EDGE_CURVE ( 'NONE', #139, #139, #65, .T. ) ;
#99 = CARTESIAN_POINT ( 'NONE',  ( 4.229085856583368845E-14, 0.9999999999999954481, 12.11258330249198245 ) ) ;
#100 = DIRECTION ( 'NONE',  ( -3.491481338843133355E-15, 1.224646799147353207E-16, -1.000000000000000000 ) ) ;
#101 = DIRECTION ( 'NONE',  ( -3.491481338843133355E-15, 1.224646799147353207E-16, -1.000000000000000000 ) ) ;
#102 = APPROVAL_PERSON_ORGANIZATION ( #134, #168, #204 ) ;
#103 = CARTESIAN_POINT ( 'NONE',  ( 4.189777606611760026E-14, 0.9349999999999922817, 12.00000000000000000 ) ) ;
#104 = PERSON_AND_ORGANIZATION ( #51, #109 ) ;
#105 = COORDINATED_UNIVERSAL_TIME_OFFSET ( 1, 0, .AHEAD. ) ;
#106 = MANIFOLD_SOLID_BREP ( 'Corps-Déplacer/Copier1[1]', #81 ) ;
#107 =( GEOMETRIC_REPRESENTATION_CONTEXT ( 3 ) GLOBAL_UNCERTAINTY_ASSIGNED_CONTEXT ( ( #219 ) ) GLOBAL_UNIT_ASSIGNED_CONTEXT ( ( #90, #73, #189 ) ) REPRESENTATION_CONTEXT ( 'NONE', 'WORKASPACE' ) );
#108 = APPLICATION_CONTEXT ( 'configuration controlled 3d designs of mechanical parts and assemblies' ) ;
#109 = ORGANIZATION ( 'UNSPECIFIED', 'UNSPECIFIED', '' ) ;
#110 = DIRECTION ( 'NONE',  ( -3.491481338843133355E-15, 1.224646799147353207E-16, -1.000000000000000000 ) ) ;
#111 = DIRECTION ( 'NONE',  ( 4.275831445896958607E-31, 1.000000000000000000, 1.224646799147353207E-16 ) ) ;
#112 = CARTESIAN_POINT ( 'NONE',  ( 1.326762908760390423E-13, 5.999039130647368167E-33, 38.00000000000000000 ) ) ;
#113 = LOCAL_TIME ( 15, 48, 0.0000000000000000000, #22 ) ;
#114 = FACE_OUTER_BOUND ( 'NONE', #60, .T. ) ;
#115 = DIRECTION ( 'NONE',  ( 3.491481338843133355E-15, -1.224646799147353207E-16, 1.000000000000000000 ) ) ;
#116 = CARTESIAN_POINT ( 'NONE',  ( 1.319779946082704535E-13, 0.9999999999999963363, 37.79999999999999716 ) ) ;
#117 = AXIS2_PLACEMENT_3D ( 'NONE', #177, #32, #86 ) ;
#118 = PERSON_AND_ORGANIZATION ( #51, #109 ) ;
#119 = DATE_TIME_ROLE ( 'classification_date' ) ;
#120 = CONICAL_SURFACE ( 'NONE', #93, 0.9999999999999970024, 0.5235987755983000369 ) ;
#121 = CC_DESIGN_PERSON_AND_ORGANIZATION_ASSIGNMENT ( #187, #36, ( #38 ) ) ;
#122 = CARTESIAN_POINT ( 'NONE',  ( 4.229085856583368845E-14, -1.483363637080248142E-15, 12.11258330249198245 ) ) ;
#123 = ADVANCED_FACE ( 'NONE', ( #53 ), #183, .T. ) ;
#124 = ORIENTED_EDGE ( 'NONE', *, *, #98, .T. ) ;
#125 = EDGE_LOOP ( 'NONE', ( #124 ) ) ;
#126 = ORIENTED_EDGE ( 'NONE', *, *, #97, .F. ) ;
#127 = ORIENTED_EDGE ( 'NONE', *, *, #6, .F. ) ;
#128 = AXIS2_PLACEMENT_3D ( 'NONE', #133, #203, #129 ) ;
#129 = DIRECTION ( 'NONE',  ( 0.0000000000000000000, 1.000000000000000000, 0.0000000000000000000 ) ) ;
#130 = CC_DESIGN_PERSON_AND_ORGANIZATION_ASSIGNMENT ( #156, #88, ( #193 ) ) ;
#131 = CARTESIAN_POINT ( 'NONE',  ( 0.0000000000000000000, 0.0000000000000000000, 0.0000000000000000000 ) ) ;
#132 = VERTEX_POINT ( 'NONE', #52 ) ;
#133 = CARTESIAN_POINT ( 'NONE',  ( 4.189777606611760026E-14, -1.469576158976823947E-15, 12.00000000000000000 ) ) ;
#134 = PERSON_AND_ORGANIZATION ( #51, #109 ) ;
#135 = APPROVAL_DATE_TIME ( #37, #176 ) ;
#136 = ADVANCED_FACE ( 'NONE', ( #83 ), #64, .F. ) ;
#137 = ADVANCED_FACE ( 'NONE', ( #161 ), #69, .T. ) ;
#138 = ADVANCED_BREP_SHAPE_REPRESENTATION ( '42119', ( #106, #33, #75 ), #107 ) ;
#139 = VERTEX_POINT ( 'NONE', #103 ) ;
#140 = LOCAL_TIME ( 15, 48, 0.0000000000000000000, #105 ) ;
#141 = EDGE_LOOP ( 'NONE', ( #143 ) ) ;
#142 = APPROVAL_DATE_TIME ( #173, #23 ) ;
#143 = ORIENTED_EDGE ( 'NONE', *, *, #6, .T. ) ;
#144 = AXIS2_PLACEMENT_3D ( 'NONE', #216, #100, #48 ) ;
#145 = APPROVAL_ROLE ( '' ) ;
#146 = EDGE_LOOP ( 'NONE', ( #94 ) ) ;
#147 = DIRECTION ( 'NONE',  ( -3.491481338843133355E-15, 1.224646799147353207E-16, -1.000000000000000000 ) ) ;
#148 = DIRECTION ( 'NONE',  ( -4.275831445896958607E-31, -1.000000000000000000, -1.224646799147353207E-16 ) ) ;
#149 = DIRECTION ( 'NONE',  ( -3.491481338843133355E-15, 1.224646799147353207E-16, -1.000000000000000000 ) ) ;
#150 = CARTESIAN_POINT ( 'NONE',  ( 1.326762908760390423E-13, 0.7999999999999963807, 38.00000000000000000 ) ) ;
#151 = DIRECTION ( 'NONE',  ( 3.491481338843133355E-15, -1.224646799147353207E-16, 1.000000000000000000 ) ) ;
#152 = PERSON_AND_ORGANIZATION ( #51, #109 ) ;
#153 = PERSON_AND_ORGANIZATION_ROLE ( 'design_owner' ) ;
#154 = COORDINATED_UNIVERSAL_TIME_OFFSET ( 1, 0, .AHEAD. ) ;
#155 = CC_DESIGN_APPROVAL ( #176, ( #185 ) ) ;
#156 = PERSON_AND_ORGANIZATION ( #51, #109 ) ;
#157 = DIRECTION ( 'NONE',  ( 0.0000000000000000000, 1.000000000000000000, 0.0000000000000000000 ) ) ;
#158 = EDGE_LOOP ( 'NONE', ( #26 ) ) ;
#159 = EDGE_LOOP ( 'NONE', ( #210 ) ) ;
#160 = CC_DESIGN_PERSON_AND_ORGANIZATION_ASSIGNMENT ( #118, #167, ( #185 ) ) ;
#161 = FACE_OUTER_BOUND ( 'NONE', #146, .T. ) ;
#162 = CC_DESIGN_APPROVAL ( #168, ( #38 ) ) ;
#163 = FACE_OUTER_BOUND ( 'NONE', #158, .T. ) ;
#164 = CYLINDRICAL_SURFACE ( 'NONE', #42, 0.9999999999999988898 ) ;
#165 = CARTESIAN_POINT ( 'NONE',  ( 1.961530552072737990E-15, -6.880123016271247587E-17, 0.5618046787907711170 ) ) ;
#166 = AXIS2_PLACEMENT_3D ( 'NONE', #112, #101, #111 ) ;
#167 = PERSON_AND_ORGANIZATION_ROLE ( 'creator' ) ;
#168 = APPROVAL ( #207, 'UNSPECIFIED' ) ;
#169 = PERSON_AND_ORGANIZATION_ROLE ( 'design_supplier' ) ;
#170 = PERSON_AND_ORGANIZATION ( #51, #109 ) ;
#171 = CALENDAR_DATE ( 2021, 7, 10 ) ;
#172 = ADVANCED_FACE ( 'NONE', ( #15 ), #198, .F. ) ;
#173 = DATE_AND_TIME ( #194, #21 ) ;
#174 = EDGE_LOOP ( 'NONE', ( #127 ) ) ;
#175 = ORIENTED_EDGE ( 'NONE', *, *, #71, .F. ) ;
#176 = APPROVAL ( #206, 'UNSPECIFIED' ) ;
#177 = CARTESIAN_POINT ( 'NONE',  ( 4.189777606611760026E-14, 7.011376983944115073E-33, 12.00000000000000000 ) ) ;
#178 = CARTESIAN_POINT ( 'NONE',  ( 1.319779946082704535E-13, -4.629164900776995227E-15, 37.79999999999999716 ) ) ;
#179 = EDGE_CURVE ( 'NONE', #1, #1, #214, .T. ) ;
#180 = CIRCLE ( 'NONE', #144, 0.8000000000000010436 ) ;
#181 = DIRECTION ( 'NONE',  ( 4.275831445896957731E-31, 1.000000000000000000, 1.224646799147353454E-16 ) ) ;
#182 = CARTESIAN_POINT ( 'NONE',  ( 4.229085856583368845E-14, -1.483363637080248142E-15, 12.11258330249198245 ) ) ;
#183 = PLANE ( 'NONE',  #117 ) ;
#184 = CC_DESIGN_SECURITY_CLASSIFICATION ( #193, ( #38 ) ) ;
#185 = PRODUCT_DEFINITION ( 'UNKNOWN', '', #38, #47 ) ;
#186 = ADVANCED_FACE ( 'NONE', ( #163, #84 ), #191, .T. ) ;
#187 = PERSON_AND_ORGANIZATION ( #51, #109 ) ;
#188 = PRODUCT ( '42119', '42119', '', ( #54 ) ) ;
#189 =( NAMED_UNIT ( * ) SI_UNIT ( $, .STERADIAN. ) SOLID_ANGLE_UNIT ( ) );
#190 = DIRECTION ( 'NONE',  ( 1.000000000000000000, 0.0000000000000000000, 0.0000000000000000000 ) ) ;
#191 = CONICAL_SURFACE ( 'NONE', #209, 0.8000000000000010436, 0.7853981633974510546 ) ;
#192 = PERSON_AND_ORGANIZATION ( #51, #109 ) ;
#193 = SECURITY_CLASSIFICATION ( '', '', #20 ) ;
#194 = CALENDAR_DATE ( 2021, 7, 10 ) ;
#195 = ORIENTED_EDGE ( 'NONE', *, *, #98, .F. ) ;
#196 = CC_DESIGN_APPROVAL ( #23, ( #193 ) ) ;
#197 = CARTESIAN_POINT ( 'NONE',  ( 1.961530552072737990E-15, -6.880123016271247587E-17, 0.5618046787907711170 ) ) ;
#198 = PLANE ( 'NONE',  #166 ) ;
#199 = DIRECTION ( 'NONE',  ( -3.491481338843133355E-15, 1.224646799147353207E-16, -1.000000000000000000 ) ) ;
#200 = CIRCLE ( 'NONE', #96, 0.9349999999999937250 ) ;
#201 = FACE_OUTER_BOUND ( 'NONE', #174, .T. ) ;
#202 = ADVANCED_FACE ( 'NONE', ( #201, #67 ), #164, .T. ) ;
#203 = DIRECTION ( 'NONE',  ( -3.491481338843133355E-15, 1.224646799147353207E-16, -1.000000000000000000 ) ) ;
#204 = APPROVAL_ROLE ( '' ) ;
#205 = PRODUCT_RELATED_PRODUCT_CATEGORY ( 'detail', '', ( #188 ) ) ;
#206 = APPROVAL_STATUS ( 'not_yet_approved' ) ;
#207 = APPROVAL_STATUS ( 'not_yet_approved' ) ;
#208 = CALENDAR_DATE ( 2021, 7, 10 ) ;
#209 = AXIS2_PLACEMENT_3D ( 'NONE', #12, #149, #218 ) ;
#210 = ORIENTED_EDGE ( 'NONE', *, *, #74, .F. ) ;
#211 = CC_DESIGN_PERSON_AND_ORGANIZATION_ASSIGNMENT ( #104, #169, ( #38 ) ) ;
#212 = FACE_BOUND ( 'NONE', #79, .T. ) ;
#213 = LOCAL_TIME ( 15, 48, 0.0000000000000000000, #55 ) ;
#214 = CIRCLE ( 'NONE', #24, 1.000000000000000888 ) ;
#215 = EDGE_LOOP ( 'NONE', ( #59 ) ) ;
#216 = CARTESIAN_POINT ( 'NONE',  ( 1.326762908760390423E-13, -4.653657836759941941E-15, 38.00000000000000000 ) ) ;
#217 = CYLINDRICAL_SURFACE ( 'NONE', #30, 0.9349999999999937250 ) ;
#218 = DIRECTION ( 'NONE',  ( 0.0000000000000000000, 1.000000000000000000, 0.0000000000000000000 ) ) ;
#219 = UNCERTAINTY_MEASURE_WITH_UNIT (LENGTH_MEASURE( 1.000000000000000082E-05 ), #90, 'distance_accuracy_value', 'NONE');
#220 = VERTEX_POINT ( 'NONE', #68 ) ;
#221 = AXIS2_PLACEMENT_3D ( 'NONE', #122, #61, #157 ) ;
#222 = FACE_OUTER_BOUND ( 'NONE', #44, .T. ) ;
#223 = DATE_AND_TIME ( #57, #113 ) ;
ENDSEC;
END-ISO-10303-21;
