ISO-10303-21;
HEADER;
FILE_DESCRIPTION (( 'STEP AP203' ),
    '1' );
FILE_NAME ('42107.step',
    '2021-11-01T12:23:29',
    ( '' ),
    ( '' ),
    'SwSTEP 2.0',
    'SolidWorks 2019',
    '' );
FILE_SCHEMA (( 'CONFIG_CONTROL_DESIGN' ));
ENDSEC;

DATA;
#1 = VERTEX_POINT ( 'NONE', #144 ) ;
#2 = DIRECTION ( 'NONE',  ( 0.0000000000000000000, 1.000000000000000000, 0.0000000000000000000 ) ) ;
#3 = CARTESIAN_POINT ( 'NONE',  ( 4.463468607437974179E-14, 2.999999999999997780, 12.78388218141500587 ) ) ;
#4 = AXIS2_PLACEMENT_3D ( 'NONE', #14, #159, #76 ) ;
#5 = DIRECTION ( 'NONE',  ( 4.275831445896959482E-31, 1.000000000000000000, 1.224646799147353207E-16 ) ) ;
#6 =( LENGTH_UNIT ( ) NAMED_UNIT ( * ) SI_UNIT ( .MILLI., .METRE. ) );
#7 = EDGE_LOOP ( 'NONE', ( #123 ) ) ;
#8 = APPROVAL_STATUS ( 'not_yet_approved' ) ;
#9 = CLOSED_SHELL ( 'NONE', ( #205, #168, #24 ) ) ;
#10 = VERTEX_POINT ( 'NONE', #125 ) ;
#11 = CALENDAR_DATE ( 2021, 1, 11 ) ;
#12 = APPROVAL ( #212, 'UNSPECIFIED' ) ;
#13 = PERSON_AND_ORGANIZATION ( #94, #184 ) ;
#14 = CARTESIAN_POINT ( 'NONE',  ( -6.413731847436034514E-31, 0.0000000000000000000, -1.836965810494968570E-16 ) ) ;
#15 = AXIS2_PLACEMENT_3D ( 'NONE', #189, #140, #20 ) ;
#16 = EDGE_LOOP ( 'NONE', ( #107 ) ) ;
#17 = EDGE_LOOP ( 'NONE', ( #220 ) ) ;
#18 = CC_DESIGN_PERSON_AND_ORGANIZATION_ASSIGNMENT ( #67, #137, ( #119 ) ) ;
#19 = FACE_BOUND ( 'NONE', #91, .T. ) ;
#20 = DIRECTION ( 'NONE',  ( 0.0000000000000000000, 1.000000000000000000, 0.0000000000000000000 ) ) ;
#21 = CC_DESIGN_PERSON_AND_ORGANIZATION_ASSIGNMENT ( #13, #182, ( #57 ) ) ;
#22 = DIRECTION ( 'NONE',  ( 0.0000000000000000000, 1.000000000000000000, 0.0000000000000000000 ) ) ;
#23 = APPLICATION_PROTOCOL_DEFINITION ( 'international standard', 'config_control_design', 1994, #56 ) ;
#24 = ADVANCED_FACE ( 'NONE', ( #60 ), #192, .F. ) ;
#25 =( NAMED_UNIT ( * ) PLANE_ANGLE_UNIT ( ) SI_UNIT ( $, .RADIAN. ) );
#26 = CARTESIAN_POINT ( 'NONE',  ( -1.071463889538912794E-30, 1.512091724654242338E-32, -3.068794547514125921E-16 ) ) ;
#27 = MECHANICAL_CONTEXT ( 'NONE', #56, 'mechanical' ) ;
#28 = DATE_TIME_ROLE ( 'creation_date' ) ;
#29 = ADVANCED_FACE ( 'NONE', ( #39 ), #197, .F. ) ;
#30 = DATE_AND_TIME ( #79, #88 ) ;
#31 = AXIS2_PLACEMENT_3D ( 'NONE', #92, #35, #74 ) ;
#32 = EDGE_LOOP ( 'NONE', ( #121 ) ) ;
#33 = CIRCLE ( 'NONE', #73, 3.000000000000002665 ) ;
#34 = CARTESIAN_POINT ( 'NONE',  ( 3.491481338843132724E-14, -2.500000000000001332, 9.999999999999998224 ) ) ;
#35 = DIRECTION ( 'NONE',  ( -3.491481338843133355E-15, 1.224646799147353207E-16, -1.000000000000000000 ) ) ;
#36 = CARTESIAN_POINT ( 'NONE',  ( 1.990144363140586139E-13, -6.980486755139912911E-15, 57.00000000000000000 ) ) ;
#37 = CIRCLE ( 'NONE', #66, 2.499999999999998668 ) ;
#38 = FACE_OUTER_BOUND ( 'NONE', #32, .T. ) ;
#39 = FACE_OUTER_BOUND ( 'NONE', #95, .T. ) ;
#40 = DIRECTION ( 'NONE',  ( 3.491481338843133355E-15, -1.224646799147353207E-16, 1.000000000000000000 ) ) ;
#41 = FACE_OUTER_BOUND ( 'NONE', #52, .T. ) ;
#42 = CARTESIAN_POINT ( 'NONE',  ( 1.976178437785213605E-13, -6.931500883174019483E-15, 56.60000000000000142 ) ) ;
#43 = COORDINATED_UNIVERSAL_TIME_OFFSET ( 1, 0, .AHEAD. ) ;
#44 = DIRECTION ( 'NONE',  ( 4.275831445896958607E-31, 1.000000000000000000, 1.224646799147353207E-16 ) ) ;
#45 = CALENDAR_DATE ( 2021, 1, 11 ) ;
#46 = DATE_AND_TIME ( #11, #86 ) ;
#47 = AXIS2_PLACEMENT_3D ( 'NONE', #163, #81, #84 ) ;
#48 = APPROVAL_ROLE ( '' ) ;
#49 = ADVANCED_FACE ( 'NONE', ( #38, #97 ), #114, .F. ) ;
#50 = DIRECTION ( 'NONE',  ( 3.491481338843133355E-15, -1.227517819005651059E-16, 1.000000000000000000 ) ) ;
#51 = ADVANCED_BREP_SHAPE_REPRESENTATION ( '42107', ( #87, #152, #204 ), #176 ) ;
#52 = EDGE_LOOP ( 'NONE', ( #99 ) ) ;
#53 = CC_DESIGN_PERSON_AND_ORGANIZATION_ASSIGNMENT ( #127, #167, ( #133 ) ) ;
#54 = ORIENTED_EDGE ( 'NONE', *, *, #55, .F. ) ;
#55 = EDGE_CURVE ( 'NONE', #1, #1, #33, .T. ) ;
#56 = APPLICATION_CONTEXT ( 'configuration controlled 3d designs of mechanical parts and assemblies' ) ;
#57 = SECURITY_CLASSIFICATION ( '', '', #105 ) ;
#58 =( NAMED_UNIT ( * ) SI_UNIT ( $, .STERADIAN. ) SOLID_ANGLE_UNIT ( ) );
#59 = DIRECTION ( 'NONE',  ( -3.491481338843133355E-15, 1.224646799147353207E-16, -1.000000000000000000 ) ) ;
#60 = FACE_OUTER_BOUND ( 'NONE', #186, .T. ) ;
#61 = APPLICATION_PROTOCOL_DEFINITION ( 'international standard', 'config_control_design', 1994, #136 ) ;
#62 = CIRCLE ( 'NONE', #124, 2.600000000000002309 ) ;
#63 = FACE_OUTER_BOUND ( 'NONE', #17, .T. ) ;
#64 = APPROVAL_ROLE ( '' ) ;
#65 = CALENDAR_DATE ( 2021, 1, 11 ) ;
#66 = AXIS2_PLACEMENT_3D ( 'NONE', #26, #78, #115 ) ;
#67 = PERSON_AND_ORGANIZATION ( #94, #184 ) ;
#68 = CARTESIAN_POINT ( 'NONE',  ( 3.491481338843132724E-14, -1.227517819005650763E-15, 9.999999999999998224 ) ) ;
#69 = EDGE_CURVE ( 'NONE', #187, #187, #37, .T. ) ;
#70 = DATE_TIME_ROLE ( 'classification_date' ) ;
#71 = EDGE_LOOP ( 'NONE', ( #210 ) ) ;
#72 = ADVANCED_FACE ( 'NONE', ( #63 ), #207, .F. ) ;
#73 = AXIS2_PLACEMENT_3D ( 'NONE', #42, #59, #2 ) ;
#74 = DIRECTION ( 'NONE',  ( 0.0000000000000000000, 1.000000000000000000, 0.0000000000000000000 ) ) ;
#75 = LOCAL_TIME ( 13, 23, 29.00000000000000000, #198 ) ;
#76 = DIRECTION ( 'NONE',  ( -4.285855558155654155E-31, -1.000000000000000000, -1.227517819005651059E-16 ) ) ;
#77 = ORIENTED_EDGE ( 'NONE', *, *, #89, .F. ) ;
#78 = DIRECTION ( 'NONE',  ( 3.491481338843133355E-15, -1.227517819005651059E-16, 1.000000000000000000 ) ) ;
#79 = CALENDAR_DATE ( 2021, 1, 11 ) ;
#80 = CIRCLE ( 'NONE', #15, 3.000000000000000000 ) ;
#81 = DIRECTION ( 'NONE',  ( 3.491481338843133355E-15, -1.227517819005651059E-16, 1.000000000000000000 ) ) ;
#82 = DIRECTION ( 'NONE',  ( -4.275831445896958607E-31, -1.000000000000000000, -1.224646799147353207E-16 ) ) ;
#83 = CARTESIAN_POINT ( 'NONE',  ( 0.0000000000000000000, 0.0000000000000000000, 0.0000000000000000000 ) ) ;
#84 = DIRECTION ( 'NONE',  ( -4.343272410919458453E-31, -1.000000000000000000, -1.227517819005651059E-16 ) ) ;
#85 = SHAPE_DEFINITION_REPRESENTATION ( #172, #51 ) ;
#86 = LOCAL_TIME ( 13, 23, 29.00000000000000000, #217 ) ;
#87 = MANIFOLD_SOLID_BREP ( 'Corps-Déplacer/Copier1[1]', #171 ) ;
#88 = LOCAL_TIME ( 13, 23, 29.00000000000000000, #102 ) ;
#89 = EDGE_CURVE ( 'NONE', #203, #203, #206, .T. ) ;
#90 = CYLINDRICAL_SURFACE ( 'NONE', #153, 3.000000000000000000 ) ;
#91 = EDGE_LOOP ( 'NONE', ( #112 ) ) ;
#92 = CARTESIAN_POINT ( 'NONE',  ( 1.990144363140586139E-13, -6.980486755139912911E-15, 57.00000000000000000 ) ) ;
#93 = CC_DESIGN_APPROVAL ( #145, ( #57 ) ) ;
#94 = PERSON ( 'UNSPECIFIED', 'UNSPECIFIED', 'UNSPECIFIED', ('UNSPECIFIED'), ('UNSPECIFIED'), ('UNSPECIFIED') ) ;
#95 = EDGE_LOOP ( 'NONE', ( #188 ) ) ;
#96 = PERSON_AND_ORGANIZATION ( #94, #184 ) ;
#97 = FACE_OUTER_BOUND ( 'NONE', #7, .T. ) ;
#98 = DESIGN_CONTEXT ( 'detailed design', #136, 'design' ) ;
#99 = ORIENTED_EDGE ( 'NONE', *, *, #69, .T. ) ;
#100 = EDGE_CURVE ( 'NONE', #10, #10, #196, .T. ) ;
#101 = CALENDAR_DATE ( 2021, 1, 11 ) ;
#102 = COORDINATED_UNIVERSAL_TIME_OFFSET ( 1, 0, .AHEAD. ) ;
#103 = CC_DESIGN_PERSON_AND_ORGANIZATION_ASSIGNMENT ( #151, #215, ( #119 ) ) ;
#104 = AXIS2_PLACEMENT_3D ( 'NONE', #68, #50, #185 ) ;
#105 = SECURITY_CLASSIFICATION_LEVEL ( 'unclassified' ) ;
#106 = AXIS2_PLACEMENT_3D ( 'NONE', #191, #156, #223 ) ;
#107 = ORIENTED_EDGE ( 'NONE', *, *, #181, .F. ) ;
#108 = APPROVAL_PERSON_ORGANIZATION ( #214, #12, #64 ) ;
#109 = DIRECTION ( 'NONE',  ( -3.491481338843133355E-15, 1.224646799147353207E-16, -1.000000000000000000 ) ) ;
#110 = CARTESIAN_POINT ( 'NONE',  ( 1.990144363140586139E-13, 2.599999999999995648, 57.00000000000000000 ) ) ;
#111 = DIRECTION ( 'NONE',  ( -3.491481338843133355E-15, 1.224646799147353207E-16, -1.000000000000000000 ) ) ;
#112 = ORIENTED_EDGE ( 'NONE', *, *, #208, .T. ) ;
#113 = ADVANCED_FACE ( 'NONE', ( #157, #141 ), #90, .T. ) ;
#114 = TOROIDAL_SURFACE ( 'NONE', #47, 10.50000000000000000, 8.000000000000000000 ) ;
#115 = DIRECTION ( 'NONE',  ( -4.285855558155653280E-31, -1.000000000000000000, -1.227517819005651059E-16 ) ) ;
#116 = DATE_AND_TIME ( #101, #211 ) ;
#117 = CARTESIAN_POINT ( 'NONE',  ( 3.491481338843132724E-14, -1.227517819005650763E-15, 9.999999999999998224 ) ) ;
#118 = DATE_AND_TIME ( #45, #75 ) ;
#119 = PRODUCT_DEFINITION_FORMATION_WITH_SPECIFIED_SOURCE ( 'ANY', '', #218, .NOT_KNOWN. ) ;
#120 = EDGE_LOOP ( 'NONE', ( #126 ) ) ;
#121 = ORIENTED_EDGE ( 'NONE', *, *, #100, .T. ) ;
#122 = PLANE ( 'NONE',  #106 ) ;
#123 = ORIENTED_EDGE ( 'NONE', *, *, #181, .T. ) ;
#124 = AXIS2_PLACEMENT_3D ( 'NONE', #36, #109, #22 ) ;
#125 = CARTESIAN_POINT ( 'NONE',  ( 3.491481338843132724E-14, -2.500000000000001332, 9.999999999999998224 ) ) ;
#126 = ORIENTED_EDGE ( 'NONE', *, *, #55, .T. ) ;
#127 = PERSON_AND_ORGANIZATION ( #94, #184 ) ;
#128 = APPROVAL ( #8, 'UNSPECIFIED' ) ;
#129 = CARTESIAN_POINT ( 'NONE',  ( -3.206816838010677856E-31, 1.124799933034399755E-32, -9.184688465421452921E-17 ) ) ;
#130 = APPROVAL_ROLE ( '' ) ;
#131 = DIRECTION ( 'NONE',  ( -3.491481338843133355E-15, 1.224646799147353207E-16, -1.000000000000000000 ) ) ;
#132 = DIRECTION ( 'NONE',  ( 1.000000000000000000, 0.0000000000000000000, 0.0000000000000000000 ) ) ;
#133 = PRODUCT_DEFINITION ( 'UNKNOWN', '', #119, #98 ) ;
#134 = CC_DESIGN_APPROVAL ( #12, ( #119 ) ) ;
#135 = APPROVAL_DATE_TIME ( #46, #145 ) ;
#136 = APPLICATION_CONTEXT ( 'configuration controlled 3d designs of mechanical parts and assemblies' ) ;
#137 = PERSON_AND_ORGANIZATION_ROLE ( 'design_supplier' ) ;
#138 = AXIS2_PLACEMENT_3D ( 'NONE', #129, #40, #82 ) ;
#139 = FACE_OUTER_BOUND ( 'NONE', #71, .T. ) ;
#140 = DIRECTION ( 'NONE',  ( -3.491481338843133355E-15, 1.227517819005651059E-16, -1.000000000000000000 ) ) ;
#141 = FACE_OUTER_BOUND ( 'NONE', #16, .T. ) ;
#142 = APPROVAL_PERSON_ORGANIZATION ( #161, #128, #130 ) ;
#143 = FACE_OUTER_BOUND ( 'NONE', #148, .T. ) ;
#144 = CARTESIAN_POINT ( 'NONE',  ( 1.976178437785213605E-13, 2.999999999999995559, 56.60000000000000142 ) ) ;
#145 = APPROVAL ( #180, 'UNSPECIFIED' ) ;
#146 = CARTESIAN_POINT ( 'NONE',  ( 1.990144363140586139E-13, 1.949687717460406406E-32, 57.00000000000000000 ) ) ;
#147 = PERSON_AND_ORGANIZATION_ROLE ( 'design_owner' ) ;
#148 = EDGE_LOOP ( 'NONE', ( #54 ) ) ;
#149 = APPROVAL_DATE_TIME ( #30, #128 ) ;
#150 = VERTEX_POINT ( 'NONE', #110 ) ;
#151 = PERSON_AND_ORGANIZATION ( #94, #184 ) ;
#152 = MANIFOLD_SOLID_BREP ( 'Corps-Déplacer/Copier1[2]', #9 ) ;
#153 = AXIS2_PLACEMENT_3D ( 'NONE', #154, #111, #5 ) ;
#154 = CARTESIAN_POINT ( 'NONE',  ( 0.0000000000000000000, 0.0000000000000000000, 0.0000000000000000000 ) ) ;
#155 = ORIENTED_EDGE ( 'NONE', *, *, #69, .F. ) ;
#156 = DIRECTION ( 'NONE',  ( 3.491481338843133355E-15, -1.224646799147353207E-16, 1.000000000000000000 ) ) ;
#157 = FACE_OUTER_BOUND ( 'NONE', #120, .T. ) ;
#158 = AXIS2_PLACEMENT_3D ( 'NONE', #175, #160, #209 ) ;
#159 = DIRECTION ( 'NONE',  ( 3.491481338843133355E-15, -1.227517819005651059E-16, 1.000000000000000000 ) ) ;
#160 = DIRECTION ( 'NONE',  ( 3.491481338843133355E-15, -1.224646799147353207E-16, 1.000000000000000000 ) ) ;
#161 = PERSON_AND_ORGANIZATION ( #94, #184 ) ;
#162 = CC_DESIGN_DATE_AND_TIME_ASSIGNMENT ( #200, #70, ( #57 ) ) ;
#163 = CARTESIAN_POINT ( 'NONE',  ( 3.491481338843132724E-14, -1.734723475976807094E-15, 9.999999999999998224 ) ) ;
#164 = DIRECTION ( 'NONE',  ( 0.0000000000000000000, 0.0000000000000000000, 1.000000000000000000 ) ) ;
#165 = UNCERTAINTY_MEASURE_WITH_UNIT (LENGTH_MEASURE( 1.000000000000000082E-05 ), #6, 'distance_accuracy_value', 'NONE');
#166 = VERTEX_POINT ( 'NONE', #3 ) ;
#167 = PERSON_AND_ORGANIZATION_ROLE ( 'creator' ) ;
#168 = ADVANCED_FACE ( 'NONE', ( #41, #194 ), #177, .T. ) ;
#169 = PERSON_AND_ORGANIZATION ( #94, #184 ) ;
#170 = CC_DESIGN_DATE_AND_TIME_ASSIGNMENT ( #116, #28, ( #133 ) ) ;
#171 = CLOSED_SHELL ( 'NONE', ( #113, #174, #72, #49, #29 ) ) ;
#172 = PRODUCT_DEFINITION_SHAPE ( 'NONE', 'NONE',  #133 ) ;
#173 = AXIS2_PLACEMENT_3D ( 'NONE', #117, #178, #213 ) ;
#174 = ADVANCED_FACE ( 'NONE', ( #143, #19 ), #190, .T. ) ;
#175 = CARTESIAN_POINT ( 'NONE',  ( 3.491481338843133355E-14, 2.249639673992782306E-32, 10.00000000000000000 ) ) ;
#176 =( GEOMETRIC_REPRESENTATION_CONTEXT ( 3 ) GLOBAL_UNCERTAINTY_ASSIGNED_CONTEXT ( ( #165 ) ) GLOBAL_UNIT_ASSIGNED_CONTEXT ( ( #6, #25, #58 ) ) REPRESENTATION_CONTEXT ( 'NONE', 'WORKASPACE' ) );
#177 = CYLINDRICAL_SURFACE ( 'NONE', #4, 2.499999999999999556 ) ;
#178 = DIRECTION ( 'NONE',  ( 3.491481338843133355E-15, -1.227517819005651059E-16, 1.000000000000000000 ) ) ;
#179 = AXIS2_PLACEMENT_3D ( 'NONE', #146, #131, #44 ) ;
#180 = APPROVAL_STATUS ( 'not_yet_approved' ) ;
#181 = EDGE_CURVE ( 'NONE', #166, #166, #80, .T. ) ;
#182 = PERSON_AND_ORGANIZATION_ROLE ( 'classification_officer' ) ;
#183 = LOCAL_TIME ( 13, 23, 29.00000000000000000, #199 ) ;
#184 = ORGANIZATION ( 'UNSPECIFIED', 'UNSPECIFIED', '' ) ;
#185 = DIRECTION ( 'NONE',  ( 0.0000000000000000000, -1.000000000000000000, 0.0000000000000000000 ) ) ;
#186 = EDGE_LOOP ( 'NONE', ( #155 ) ) ;
#187 = VERTEX_POINT ( 'NONE', #221 ) ;
#188 = ORIENTED_EDGE ( 'NONE', *, *, #100, .F. ) ;
#189 = CARTESIAN_POINT ( 'NONE',  ( 4.463468607437974179E-14, -2.076449974346731714E-15, 12.78388218141500587 ) ) ;
#190 = CONICAL_SURFACE ( 'NONE', #31, 2.600000000000002309, 0.7853981633974516097 ) ;
#191 = CARTESIAN_POINT ( 'NONE',  ( 3.491481338843133355E-14, 2.249639673992782306E-32, 10.00000000000000000 ) ) ;
#192 = PLANE ( 'NONE',  #138 ) ;
#193 = APPROVAL_DATE_TIME ( #118, #12 ) ;
#194 = FACE_OUTER_BOUND ( 'NONE', #195, .T. ) ;
#195 = EDGE_LOOP ( 'NONE', ( #77 ) ) ;
#196 = CIRCLE ( 'NONE', #104, 2.500000000000000000 ) ;
#197 = PLANE ( 'NONE',  #158 ) ;
#198 = COORDINATED_UNIVERSAL_TIME_OFFSET ( 1, 0, .AHEAD. ) ;
#199 = COORDINATED_UNIVERSAL_TIME_OFFSET ( 1, 0, .AHEAD. ) ;
#200 = DATE_AND_TIME ( #65, #183 ) ;
#201 = APPROVAL_PERSON_ORGANIZATION ( #169, #145, #48 ) ;
#202 = CC_DESIGN_APPROVAL ( #128, ( #133 ) ) ;
#203 = VERTEX_POINT ( 'NONE', #34 ) ;
#204 = AXIS2_PLACEMENT_3D ( 'NONE', #83, #164, #132 ) ;
#205 = ADVANCED_FACE ( 'NONE', ( #139 ), #122, .T. ) ;
#206 = CIRCLE ( 'NONE', #173, 2.500000000000000000 ) ;
#207 = PLANE ( 'NONE',  #179 ) ;
#208 = EDGE_CURVE ( 'NONE', #150, #150, #62, .T. ) ;
#209 = DIRECTION ( 'NONE',  ( -4.275831445896958607E-31, -1.000000000000000000, -1.224646799147353207E-16 ) ) ;
#210 = ORIENTED_EDGE ( 'NONE', *, *, #89, .T. ) ;
#211 = LOCAL_TIME ( 13, 23, 29.00000000000000000, #43 ) ;
#212 = APPROVAL_STATUS ( 'not_yet_approved' ) ;
#213 = DIRECTION ( 'NONE',  ( 0.0000000000000000000, -1.000000000000000000, 0.0000000000000000000 ) ) ;
#214 = PERSON_AND_ORGANIZATION ( #94, #184 ) ;
#215 = PERSON_AND_ORGANIZATION_ROLE ( 'creator' ) ;
#216 = CC_DESIGN_PERSON_AND_ORGANIZATION_ASSIGNMENT ( #96, #147, ( #218 ) ) ;
#217 = COORDINATED_UNIVERSAL_TIME_OFFSET ( 1, 0, .AHEAD. ) ;
#218 = PRODUCT ( '42107', '42107', '', ( #27 ) ) ;
#219 = CC_DESIGN_SECURITY_CLASSIFICATION ( #57, ( #119 ) ) ;
#220 = ORIENTED_EDGE ( 'NONE', *, *, #208, .F. ) ;
#221 = CARTESIAN_POINT ( 'NONE',  ( -2.142927779077825589E-30, -2.499999999999998668, -6.137589095028251842E-16 ) ) ;
#222 = PRODUCT_RELATED_PRODUCT_CATEGORY ( 'detail', '', ( #218 ) ) ;
#223 = DIRECTION ( 'NONE',  ( -4.275831445896958607E-31, -1.000000000000000000, -1.224646799147353207E-16 ) ) ;
ENDSEC;
END-ISO-10303-21;
