ISO-10303-21;
HEADER;
FILE_DESCRIPTION (( 'STEP AP203' ),
    '1' );
FILE_NAME ('42106.step',
    '2021-11-01T12:23:29',
    ( '' ),
    ( '' ),
    'SwSTEP 2.0',
    'SolidWorks 2019',
    '' );
FILE_SCHEMA (( 'CONFIG_CONTROL_DESIGN' ));
ENDSEC;

DATA;
#1 = DIRECTION ( 'NONE',  ( 0.0000000000000000000, 1.000000000000000000, 0.0000000000000000000 ) ) ;
#2 = APPROVAL_PERSON_ORGANIZATION ( #72, #206, #148 ) ;
#3 = DIRECTION ( 'NONE',  ( 3.491481338843133355E-15, -1.227517819005651059E-16, 1.000000000000000000 ) ) ;
#4 = APPLICATION_CONTEXT ( 'configuration controlled 3d designs of mechanical parts and assemblies' ) ;
#5 = CARTESIAN_POINT ( 'NONE',  ( 1.990144363140586139E-13, -6.980486755139912911E-15, 57.00000000000000000 ) ) ;
#6 = DIRECTION ( 'NONE',  ( 1.000000000000000000, 0.0000000000000000000, 0.0000000000000000000 ) ) ;
#7 = CC_DESIGN_PERSON_AND_ORGANIZATION_ASSIGNMENT ( #144, #212, ( #200 ) ) ;
#8 = DIRECTION ( 'NONE',  ( -4.285855558155654155E-31, -1.000000000000000000, -1.227517819005650812E-16 ) ) ;
#9 = CALENDAR_DATE ( 2021, 1, 11 ) ;
#10 = EDGE_LOOP ( 'NONE', ( #132 ) ) ;
#11 = MANIFOLD_SOLID_BREP ( 'Corps-Déplacer/Copier1[1]', #207 ) ;
#12 = DIRECTION ( 'NONE',  ( 0.0000000000000000000, 1.000000000000000000, 0.0000000000000000000 ) ) ;
#13 = AXIS2_PLACEMENT_3D ( 'NONE', #157, #81, #139 ) ;
#14 = APPROVAL_DATE_TIME ( #104, #206 ) ;
#15 = COORDINATED_UNIVERSAL_TIME_OFFSET ( 1, 0, .AHEAD. ) ;
#16 = APPROVAL ( #24, 'UNSPECIFIED' ) ;
#17 = DIRECTION ( 'NONE',  ( 0.0000000000000000000, 1.000000000000000000, 0.0000000000000000000 ) ) ;
#18 = APPROVAL_ROLE ( '' ) ;
#19 = AXIS2_PLACEMENT_3D ( 'NONE', #125, #191, #21 ) ;
#20 = FACE_OUTER_BOUND ( 'NONE', #89, .T. ) ;
#21 = DIRECTION ( 'NONE',  ( -4.275831445896958607E-31, -1.000000000000000000, -1.224646799147353207E-16 ) ) ;
#22 = CIRCLE ( 'NONE', #41, 2.999999999999999556 ) ;
#23 = FACE_OUTER_BOUND ( 'NONE', #209, .T. ) ;
#24 = APPROVAL_STATUS ( 'not_yet_approved' ) ;
#25 = CC_DESIGN_PERSON_AND_ORGANIZATION_ASSIGNMENT ( #150, #187, ( #173 ) ) ;
#26 = CIRCLE ( 'NONE', #178, 3.000000000000002665 ) ;
#27 = FACE_OUTER_BOUND ( 'NONE', #213, .T. ) ;
#28 = UNCERTAINTY_MEASURE_WITH_UNIT (LENGTH_MEASURE( 1.000000000000000082E-05 ), #145, 'distance_accuracy_value', 'NONE');
#29 = CARTESIAN_POINT ( 'NONE',  ( 0.0000000000000000000, 0.0000000000000000000, 0.0000000000000000000 ) ) ;
#30 = ORIENTED_EDGE ( 'NONE', *, *, #154, .F. ) ;
#31 = CC_DESIGN_PERSON_AND_ORGANIZATION_ASSIGNMENT ( #110, #58, ( #33 ) ) ;
#32 = VERTEX_POINT ( 'NONE', #129 ) ;
#33 = SECURITY_CLASSIFICATION ( '', '', #185 ) ;
#34 = APPROVAL_STATUS ( 'not_yet_approved' ) ;
#35 = DIRECTION ( 'NONE',  ( 3.491481338843133355E-15, -1.227517819005651059E-16, 1.000000000000000000 ) ) ;
#36 = APPROVAL_STATUS ( 'not_yet_approved' ) ;
#37 = DATE_AND_TIME ( #122, #211 ) ;
#38 = EDGE_LOOP ( 'NONE', ( #184 ) ) ;
#39 = AXIS2_PLACEMENT_3D ( 'NONE', #83, #161, #117 ) ;
#40 = PERSON_AND_ORGANIZATION ( #49, #162 ) ;
#41 = AXIS2_PLACEMENT_3D ( 'NONE', #47, #180, #12 ) ;
#42 = FACE_OUTER_BOUND ( 'NONE', #119, .T. ) ;
#43 = DIRECTION ( 'NONE',  ( -3.491481338843133355E-15, 1.224646799147353207E-16, -1.000000000000000000 ) ) ;
#44 = CARTESIAN_POINT ( 'NONE',  ( 1.990144363140586139E-13, -6.980486755139912911E-15, 57.00000000000000000 ) ) ;
#45 = CONICAL_SURFACE ( 'NONE', #109, 2.600000000000002309, 0.7853981633974516097 ) ;
#46 = ADVANCED_FACE ( 'NONE', ( #102, #130 ), #197, .T. ) ;
#47 = CARTESIAN_POINT ( 'NONE',  ( 4.072355432398989404E-14, -5.724761996143286443E-16, 11.66368952654440427 ) ) ;
#48 = MECHANICAL_CONTEXT ( 'NONE', #220, 'mechanical' ) ;
#49 = PERSON ( 'UNSPECIFIED', 'UNSPECIFIED', 'UNSPECIFIED', ('UNSPECIFIED'), ('UNSPECIFIED'), ('UNSPECIFIED') ) ;
#50 = DIRECTION ( 'NONE',  ( -4.285855558155652404E-31, -1.000000000000000000, -1.227517819005650812E-16 ) ) ;
#51 = CARTESIAN_POINT ( 'NONE',  ( -6.413731847436034514E-31, 0.0000000000000000000, -1.836965810494968570E-16 ) ) ;
#52 = APPROVAL_ROLE ( '' ) ;
#53 = CC_DESIGN_APPROVAL ( #206, ( #33 ) ) ;
#54 = COORDINATED_UNIVERSAL_TIME_OFFSET ( 1, 0, .AHEAD. ) ;
#55 = APPROVAL_DATE_TIME ( #37, #93 ) ;
#56 = AXIS2_PLACEMENT_3D ( 'NONE', #44, #43, #1 ) ;
#57 = CC_DESIGN_APPROVAL ( #93, ( #173 ) ) ;
#58 = PERSON_AND_ORGANIZATION_ROLE ( 'classification_officer' ) ;
#59 = PRODUCT_RELATED_PRODUCT_CATEGORY ( 'detail', '', ( #200 ) ) ;
#60 = FACE_OUTER_BOUND ( 'NONE', #10, .T. ) ;
#61 = ADVANCED_FACE ( 'NONE', ( #90 ), #78, .F. ) ;
#62 = AXIS2_PLACEMENT_3D ( 'NONE', #153, #221, #98 ) ;
#63 = VERTEX_POINT ( 'NONE', #141 ) ;
#64 = EDGE_CURVE ( 'NONE', #32, #32, #26, .T. ) ;
#65 = AXIS2_PLACEMENT_3D ( 'NONE', #29, #159, #6 ) ;
#66 =( NAMED_UNIT ( * ) SI_UNIT ( $, .STERADIAN. ) SOLID_ANGLE_UNIT ( ) );
#67 = EDGE_LOOP ( 'NONE', ( #146 ) ) ;
#68 = COORDINATED_UNIVERSAL_TIME_OFFSET ( 1, 0, .AHEAD. ) ;
#69 = ORIENTED_EDGE ( 'NONE', *, *, #169, .T. ) ;
#70 = COORDINATED_UNIVERSAL_TIME_OFFSET ( 1, 0, .AHEAD. ) ;
#71 = EDGE_LOOP ( 'NONE', ( #30 ) ) ;
#72 = PERSON_AND_ORGANIZATION ( #49, #162 ) ;
#73 = CARTESIAN_POINT ( 'NONE',  ( 1.990144363140586139E-13, 1.949687717460406406E-32, 57.00000000000000000 ) ) ;
#74 = PRODUCT_DEFINITION_SHAPE ( 'NONE', 'NONE',  #175 ) ;
#75 = CC_DESIGN_PERSON_AND_ORGANIZATION_ASSIGNMENT ( #40, #215, ( #173 ) ) ;
#76 = CALENDAR_DATE ( 2021, 1, 11 ) ;
#77 = DIRECTION ( 'NONE',  ( -3.491481338843133355E-15, 1.224646799147353207E-16, -1.000000000000000000 ) ) ;
#78 = PLANE ( 'NONE',  #168 ) ;
#79 = TOROIDAL_SURFACE ( 'NONE', #111, 9.500000000000000000, 8.000000000000000000 ) ;
#80 = FACE_OUTER_BOUND ( 'NONE', #107, .T. ) ;
#81 = DIRECTION ( 'NONE',  ( 3.491481338843133355E-15, -1.224646799147353207E-16, 1.000000000000000000 ) ) ;
#82 = AXIS2_PLACEMENT_3D ( 'NONE', #51, #35, #8 ) ;
#83 = CARTESIAN_POINT ( 'NONE',  ( 0.0000000000000000000, 0.0000000000000000000, 0.0000000000000000000 ) ) ;
#84 = DIRECTION ( 'NONE',  ( -3.491481338843133355E-15, 1.224646799147353207E-16, -1.000000000000000000 ) ) ;
#85 = EDGE_LOOP ( 'NONE', ( #105 ) ) ;
#86 = CARTESIAN_POINT ( 'NONE',  ( -6.428783337233479043E-31, 5.291728677853209215E-35, -1.841276728508476341E-16 ) ) ;
#87 = ADVANCED_FACE ( 'NONE', ( #60 ), #152, .F. ) ;
#88 = CARTESIAN_POINT ( 'NONE',  ( 4.072355432398989404E-14, 2.999999999999999112, 11.66368952654440427 ) ) ;
#89 = EDGE_LOOP ( 'NONE', ( #149 ) ) ;
#90 = FACE_OUTER_BOUND ( 'NONE', #71, .T. ) ;
#91 = ORIENTED_EDGE ( 'NONE', *, *, #97, .T. ) ;
#92 = AXIS2_PLACEMENT_3D ( 'NONE', #188, #155, #136 ) ;
#93 = APPROVAL ( #36, 'UNSPECIFIED' ) ;
#94 = SHAPE_DEFINITION_REPRESENTATION ( #74, #124 ) ;
#95 = DIRECTION ( 'NONE',  ( -3.491481338843133355E-15, 1.224646799147353207E-16, -1.000000000000000000 ) ) ;
#96 = LOCAL_TIME ( 13, 23, 29.00000000000000000, #54 ) ;
#97 = EDGE_CURVE ( 'NONE', #63, #63, #151, .T. ) ;
#98 = DIRECTION ( 'NONE',  ( 0.0000000000000000000, -1.000000000000000000, 0.0000000000000000000 ) ) ;
#99 = CIRCLE ( 'NONE', #62, 1.500000000000000444 ) ;
#100 = CYLINDRICAL_SURFACE ( 'NONE', #39, 2.999999999999999556 ) ;
#101 = DIRECTION ( 'NONE',  ( 3.491481338843133355E-15, -1.227517819005651059E-16, 1.000000000000000000 ) ) ;
#102 = FACE_OUTER_BOUND ( 'NONE', #166, .T. ) ;
#103 = VERTEX_POINT ( 'NONE', #116 ) ;
#104 = DATE_AND_TIME ( #171, #96 ) ;
#105 = ORIENTED_EDGE ( 'NONE', *, *, #97, .F. ) ;
#106 = DATE_AND_TIME ( #76, #126 ) ;
#107 = EDGE_LOOP ( 'NONE', ( #69 ) ) ;
#108 = EDGE_CURVE ( 'NONE', #181, #181, #22, .T. ) ;
#109 = AXIS2_PLACEMENT_3D ( 'NONE', #5, #84, #142 ) ;
#110 = PERSON_AND_ORGANIZATION ( #49, #162 ) ;
#111 = AXIS2_PLACEMENT_3D ( 'NONE', #134, #204, #190 ) ;
#112 = PLANE ( 'NONE',  #19 ) ;
#113 = VERTEX_POINT ( 'NONE', #158 ) ;
#114 = CARTESIAN_POINT ( 'NONE',  ( 2.444036937190193033E-14, -8.592624733039555931E-16, 6.999999999999999112 ) ) ;
#115 = ADVANCED_FACE ( 'NONE', ( #20 ), #135, .F. ) ;
#116 = CARTESIAN_POINT ( 'NONE',  ( 1.990144363140586139E-13, 2.599999999999995648, 57.00000000000000000 ) ) ;
#117 = DIRECTION ( 'NONE',  ( 4.275831445896959482E-31, 1.000000000000000000, 1.224646799147353207E-16 ) ) ;
#118 = FACE_OUTER_BOUND ( 'NONE', #38, .T. ) ;
#119 = EDGE_LOOP ( 'NONE', ( #143 ) ) ;
#120 = CALENDAR_DATE ( 2021, 1, 11 ) ;
#121 = CIRCLE ( 'NONE', #56, 2.600000000000002309 ) ;
#122 = CALENDAR_DATE ( 2021, 1, 11 ) ;
#123 = PERSON_AND_ORGANIZATION ( #49, #162 ) ;
#124 = ADVANCED_BREP_SHAPE_REPRESENTATION ( '42106', ( #11, #160, #65 ), #156 ) ;
#125 = CARTESIAN_POINT ( 'NONE',  ( 2.444036937190193349E-14, 2.249639673992782580E-32, 7.000000000000000000 ) ) ;
#126 = LOCAL_TIME ( 13, 23, 29.00000000000000000, #68 ) ;
#127 = VERTEX_POINT ( 'NONE', #208 ) ;
#128 = ADVANCED_FACE ( 'NONE', ( #137 ), #112, .T. ) ;
#129 = CARTESIAN_POINT ( 'NONE',  ( 1.976178437785213605E-13, 2.999999999999995559, 56.60000000000000142 ) ) ;
#130 = FACE_OUTER_BOUND ( 'NONE', #85, .T. ) ;
#131 = PERSON_AND_ORGANIZATION_ROLE ( 'creator' ) ;
#132 = ORIENTED_EDGE ( 'NONE', *, *, #186, .F. ) ;
#133 = DATE_AND_TIME ( #9, #172 ) ;
#134 = CARTESIAN_POINT ( 'NONE',  ( 2.444036937190193033E-14, 0.0000000000000000000, 6.999999999999999112 ) ) ;
#135 = PLANE ( 'NONE',  #13 ) ;
#136 = DIRECTION ( 'NONE',  ( -4.275831445896958607E-31, -1.000000000000000000, -1.224646799147353207E-16 ) ) ;
#137 = FACE_OUTER_BOUND ( 'NONE', #214, .T. ) ;
#138 = CC_DESIGN_DATE_AND_TIME_ASSIGNMENT ( #133, #182, ( #175 ) ) ;
#139 = DIRECTION ( 'NONE',  ( -4.275831445896958607E-31, -1.000000000000000000, -1.224646799147353207E-16 ) ) ;
#140 = AXIS2_PLACEMENT_3D ( 'NONE', #86, #101, #50 ) ;
#141 = CARTESIAN_POINT ( 'NONE',  ( 2.444036937190193033E-14, -1.500000000000001332, 6.999999999999999112 ) ) ;
#142 = DIRECTION ( 'NONE',  ( 0.0000000000000000000, 1.000000000000000000, 0.0000000000000000000 ) ) ;
#143 = ORIENTED_EDGE ( 'NONE', *, *, #64, .F. ) ;
#144 = PERSON_AND_ORGANIZATION ( #49, #162 ) ;
#145 =( LENGTH_UNIT ( ) NAMED_UNIT ( * ) SI_UNIT ( .MILLI., .METRE. ) );
#146 = ORIENTED_EDGE ( 'NONE', *, *, #154, .T. ) ;
#147 = DESIGN_CONTEXT ( 'detailed design', #4, 'design' ) ;
#148 = APPROVAL_ROLE ( '' ) ;
#149 = ORIENTED_EDGE ( 'NONE', *, *, #169, .F. ) ;
#150 = PERSON_AND_ORGANIZATION ( #49, #162 ) ;
#151 = CIRCLE ( 'NONE', #205, 1.500000000000000444 ) ;
#152 = PLANE ( 'NONE',  #92 ) ;
#153 = CARTESIAN_POINT ( 'NONE',  ( 2.444036937190193033E-14, -8.592624733039555931E-16, 6.999999999999999112 ) ) ;
#154 = EDGE_CURVE ( 'NONE', #103, #103, #121, .T. ) ;
#155 = DIRECTION ( 'NONE',  ( 3.491481338843133355E-15, -1.224646799147353207E-16, 1.000000000000000000 ) ) ;
#156 =( GEOMETRIC_REPRESENTATION_CONTEXT ( 3 ) GLOBAL_UNCERTAINTY_ASSIGNED_CONTEXT ( ( #28 ) ) GLOBAL_UNIT_ASSIGNED_CONTEXT ( ( #145, #193, #66 ) ) REPRESENTATION_CONTEXT ( 'NONE', 'WORKASPACE' ) );
#157 = CARTESIAN_POINT ( 'NONE',  ( 2.444036937190193349E-14, 2.249639673992782580E-32, 7.000000000000000000 ) ) ;
#158 = CARTESIAN_POINT ( 'NONE',  ( -1.285756667446695634E-30, -1.499999999999999556, -3.682553457016952190E-16 ) ) ;
#159 = DIRECTION ( 'NONE',  ( 0.0000000000000000000, 0.0000000000000000000, 1.000000000000000000 ) ) ;
#160 = MANIFOLD_SOLID_BREP ( 'Corps-Déplacer/Copier1[2]', #222 ) ;
#161 = DIRECTION ( 'NONE',  ( -3.491481338843133355E-15, 1.224646799147353207E-16, -1.000000000000000000 ) ) ;
#162 = ORGANIZATION ( 'UNSPECIFIED', 'UNSPECIFIED', '' ) ;
#163 = ORIENTED_EDGE ( 'NONE', *, *, #186, .T. ) ;
#164 = CC_DESIGN_DATE_AND_TIME_ASSIGNMENT ( #167, #199, ( #33 ) ) ;
#165 = APPROVAL_DATE_TIME ( #106, #16 ) ;
#166 = EDGE_LOOP ( 'NONE', ( #163 ) ) ;
#167 = DATE_AND_TIME ( #120, #201 ) ;
#168 = AXIS2_PLACEMENT_3D ( 'NONE', #73, #77, #170 ) ;
#169 = EDGE_CURVE ( 'NONE', #127, #127, #99, .T. ) ;
#170 = DIRECTION ( 'NONE',  ( 4.275831445896958607E-31, 1.000000000000000000, 1.224646799147353207E-16 ) ) ;
#171 = CALENDAR_DATE ( 2021, 1, 11 ) ;
#172 = LOCAL_TIME ( 13, 23, 29.00000000000000000, #70 ) ;
#173 = PRODUCT_DEFINITION_FORMATION_WITH_SPECIFIED_SOURCE ( 'ANY', '', #200, .NOT_KNOWN. ) ;
#174 = ADVANCED_FACE ( 'NONE', ( #80, #23 ), #79, .F. ) ;
#175 = PRODUCT_DEFINITION ( 'UNKNOWN', '', #173, #147 ) ;
#176 = CIRCLE ( 'NONE', #140, 1.499999999999999556 ) ;
#177 = CC_DESIGN_SECURITY_CLASSIFICATION ( #33, ( #173 ) ) ;
#178 = AXIS2_PLACEMENT_3D ( 'NONE', #218, #95, #17 ) ;
#179 = ADVANCED_FACE ( 'NONE', ( #42, #189 ), #45, .T. ) ;
#180 = DIRECTION ( 'NONE',  ( -3.491481338843133355E-15, 1.227517819005651059E-16, -1.000000000000000000 ) ) ;
#181 = VERTEX_POINT ( 'NONE', #88 ) ;
#182 = DATE_TIME_ROLE ( 'creation_date' ) ;
#183 = ORIENTED_EDGE ( 'NONE', *, *, #64, .T. ) ;
#184 = ORIENTED_EDGE ( 'NONE', *, *, #108, .F. ) ;
#185 = SECURITY_CLASSIFICATION_LEVEL ( 'unclassified' ) ;
#186 = EDGE_CURVE ( 'NONE', #113, #113, #176, .T. ) ;
#187 = PERSON_AND_ORGANIZATION_ROLE ( 'design_supplier' ) ;
#188 = CARTESIAN_POINT ( 'NONE',  ( -3.206816838010677856E-31, 1.124799933034399755E-32, -9.184688465421452921E-17 ) ) ;
#189 = FACE_BOUND ( 'NONE', #67, .T. ) ;
#190 = DIRECTION ( 'NONE',  ( -4.346553373934532134E-31, -1.000000000000000000, -1.227517819005651059E-16 ) ) ;
#191 = DIRECTION ( 'NONE',  ( 3.491481338843133355E-15, -1.224646799147353207E-16, 1.000000000000000000 ) ) ;
#192 = APPLICATION_PROTOCOL_DEFINITION ( 'international standard', 'config_control_design', 1994, #4 ) ;
#193 =( NAMED_UNIT ( * ) PLANE_ANGLE_UNIT ( ) SI_UNIT ( $, .RADIAN. ) );
#194 = DIRECTION ( 'NONE',  ( 0.0000000000000000000, -1.000000000000000000, 0.0000000000000000000 ) ) ;
#195 = APPLICATION_PROTOCOL_DEFINITION ( 'international standard', 'config_control_design', 1994, #220 ) ;
#196 = PERSON_AND_ORGANIZATION ( #49, #162 ) ;
#197 = CYLINDRICAL_SURFACE ( 'NONE', #82, 1.500000000000000000 ) ;
#198 = CC_DESIGN_PERSON_AND_ORGANIZATION_ASSIGNMENT ( #123, #131, ( #175 ) ) ;
#199 = DATE_TIME_ROLE ( 'classification_date' ) ;
#200 = PRODUCT ( '42106', '42106', '', ( #48 ) ) ;
#201 = LOCAL_TIME ( 13, 23, 29.00000000000000000, #15 ) ;
#202 = COORDINATED_UNIVERSAL_TIME_OFFSET ( 1, 0, .AHEAD. ) ;
#203 = PERSON_AND_ORGANIZATION ( #49, #162 ) ;
#204 = DIRECTION ( 'NONE',  ( 3.491481338843133355E-15, -1.227517819005651059E-16, 1.000000000000000000 ) ) ;
#205 = AXIS2_PLACEMENT_3D ( 'NONE', #114, #3, #194 ) ;
#206 = APPROVAL ( #34, 'UNSPECIFIED' ) ;
#207 = CLOSED_SHELL ( 'NONE', ( #217, #179, #61, #174, #115 ) ) ;
#208 = CARTESIAN_POINT ( 'NONE',  ( 2.444036937190193033E-14, -1.500000000000001332, 6.999999999999999112 ) ) ;
#209 = EDGE_LOOP ( 'NONE', ( #216 ) ) ;
#210 = CC_DESIGN_APPROVAL ( #16, ( #175 ) ) ;
#211 = LOCAL_TIME ( 13, 23, 29.00000000000000000, #202 ) ;
#212 = PERSON_AND_ORGANIZATION_ROLE ( 'design_owner' ) ;
#213 = EDGE_LOOP ( 'NONE', ( #183 ) ) ;
#214 = EDGE_LOOP ( 'NONE', ( #91 ) ) ;
#215 = PERSON_AND_ORGANIZATION_ROLE ( 'creator' ) ;
#216 = ORIENTED_EDGE ( 'NONE', *, *, #108, .T. ) ;
#217 = ADVANCED_FACE ( 'NONE', ( #27, #118 ), #100, .T. ) ;
#218 = CARTESIAN_POINT ( 'NONE',  ( 1.976178437785213605E-13, -6.931500883174019483E-15, 56.60000000000000142 ) ) ;
#219 = APPROVAL_PERSON_ORGANIZATION ( #196, #16, #18 ) ;
#220 = APPLICATION_CONTEXT ( 'configuration controlled 3d designs of mechanical parts and assemblies' ) ;
#221 = DIRECTION ( 'NONE',  ( 3.491481338843133355E-15, -1.227517819005651059E-16, 1.000000000000000000 ) ) ;
#222 = CLOSED_SHELL ( 'NONE', ( #128, #46, #87 ) ) ;
#223 = APPROVAL_PERSON_ORGANIZATION ( #203, #93, #52 ) ;
ENDSEC;
END-ISO-10303-21;
