ISO-10303-21;
HEADER;
FILE_DESCRIPTION (( 'STEP AP203' ),
    '1' );
FILE_NAME ('42105.step',
    '2021-11-01T12:23:28',
    ( '' ),
    ( '' ),
    'SwSTEP 2.0',
    'SolidWorks 2019',
    '' );
FILE_SCHEMA (( 'CONFIG_CONTROL_DESIGN' ));
ENDSEC;

DATA;
#1 = DATE_AND_TIME ( #159, #207 ) ;
#2 = AXIS2_PLACEMENT_3D ( 'NONE', #72, #69, #7 ) ;
#3 = CALENDAR_DATE ( 2021, 1, 11 ) ;
#4 = DIRECTION ( 'NONE',  ( -3.491481338843133355E-15, 1.227517819005651059E-16, -1.000000000000000000 ) ) ;
#5 = PERSON_AND_ORGANIZATION ( #123, #177 ) ;
#6 = FACE_BOUND ( 'NONE', #94, .T. ) ;
#7 = DIRECTION ( 'NONE',  ( 0.0000000000000000000, 1.000000000000000000, 0.0000000000000000000 ) ) ;
#8 = ORIENTED_EDGE ( 'NONE', *, *, #157, .F. ) ;
#9 = CARTESIAN_POINT ( 'NONE',  ( 2.444036937190193349E-14, 1.124819836996386774E-32, 7.000000000000000000 ) ) ;
#10 = DIRECTION ( 'NONE',  ( 4.275831445896958607E-31, 1.000000000000000000, 1.224646799147353207E-16 ) ) ;
#11 = EDGE_LOOP ( 'NONE', ( #167 ) ) ;
#12 = CIRCLE ( 'NONE', #142, 1.249999999999998890 ) ;
#13 = PRODUCT_DEFINITION ( 'UNKNOWN', '', #80, #16 ) ;
#14 = AXIS2_PLACEMENT_3D ( 'NONE', #102, #41, #107 ) ;
#15 = LOCAL_TIME ( 13, 23, 28.00000000000000000, #104 ) ;
#16 = DESIGN_CONTEXT ( 'detailed design', #194, 'design' ) ;
#17 = DIRECTION ( 'NONE',  ( 3.491481338843133355E-15, -1.227517819005651059E-16, 1.000000000000000000 ) ) ;
#18 = DATE_AND_TIME ( #178, #160 ) ;
#19 = APPROVAL_PERSON_ORGANIZATION ( #106, #139, #88 ) ;
#20 = COORDINATED_UNIVERSAL_TIME_OFFSET ( 1, 0, .AHEAD. ) ;
#21 = DATE_AND_TIME ( #124, #68 ) ;
#22 =( NAMED_UNIT ( * ) PLANE_ANGLE_UNIT ( ) SI_UNIT ( $, .RADIAN. ) );
#23 = AXIS2_PLACEMENT_3D ( 'NONE', #158, #17, #84 ) ;
#24 = COORDINATED_UNIVERSAL_TIME_OFFSET ( 1, 0, .AHEAD. ) ;
#25 = CYLINDRICAL_SURFACE ( 'NONE', #87, 1.499999999999994893 ) ;
#26 = CARTESIAN_POINT ( 'NONE',  ( 0.0000000000000000000, 0.0000000000000000000, 0.0000000000000000000 ) ) ;
#27 = DIRECTION ( 'NONE',  ( 3.491481338843133355E-15, -1.227517819005651059E-16, 1.000000000000000000 ) ) ;
#28 = ORIENTED_EDGE ( 'NONE', *, *, #141, .T. ) ;
#29 = CARTESIAN_POINT ( 'NONE',  ( 1.326762908760390423E-13, -4.653657836759941941E-15, 38.00000000000000000 ) ) ;
#30 = CLOSED_SHELL ( 'NONE', ( #200, #206, #174, #51, #195 ) ) ;
#31 = AXIS2_PLACEMENT_3D ( 'NONE', #115, #130, #113 ) ;
#32 = APPROVAL ( #105, 'UNSPECIFIED' ) ;
#33 = CIRCLE ( 'NONE', #140, 1.499999999999994893 ) ;
#34 = AXIS2_PLACEMENT_3D ( 'NONE', #46, #220, #132 ) ;
#35 = ADVANCED_FACE ( 'NONE', ( #79 ), #155, .F. ) ;
#36 = COORDINATED_UNIVERSAL_TIME_OFFSET ( 1, 0, .AHEAD. ) ;
#37 = EDGE_CURVE ( 'NONE', #58, #58, #12, .T. ) ;
#38 = AXIS2_PLACEMENT_3D ( 'NONE', #39, #89, #53 ) ;
#39 = CARTESIAN_POINT ( 'NONE',  ( 0.0000000000000000000, 0.0000000000000000000, 0.0000000000000000000 ) ) ;
#40 = COORDINATED_UNIVERSAL_TIME_OFFSET ( 1, 0, .AHEAD. ) ;
#41 = DIRECTION ( 'NONE',  ( 3.491481338843133355E-15, -1.227517819005651059E-16, 1.000000000000000000 ) ) ;
#42 = DIRECTION ( 'NONE',  ( 0.0000000000000000000, 1.000000000000000000, 0.0000000000000000000 ) ) ;
#43 = CARTESIAN_POINT ( 'NONE',  ( -1.071463889538912619E-30, -1.249999999999998890, -3.068794547514125428E-16 ) ) ;
#44 = CIRCLE ( 'NONE', #172, 1.250000000000000222 ) ;
#45 = DIRECTION ( 'NONE',  ( -3.491481338843133355E-15, 1.224646799147353207E-16, -1.000000000000000000 ) ) ;
#46 = CARTESIAN_POINT ( 'NONE',  ( 2.444036937190193349E-14, 1.124819836996386774E-32, 7.000000000000000000 ) ) ;
#47 = VERTEX_POINT ( 'NONE', #216 ) ;
#48 = CC_DESIGN_APPROVAL ( #101, ( #151 ) ) ;
#49 = DIRECTION ( 'NONE',  ( -4.285855558155653280E-31, -1.000000000000000000, -1.227517819005651059E-16 ) ) ;
#50 = LOCAL_TIME ( 13, 23, 28.00000000000000000, #36 ) ;
#51 = ADVANCED_FACE ( 'NONE', ( #205, #114 ), #136, .F. ) ;
#52 = PERSON_AND_ORGANIZATION ( #123, #177 ) ;
#53 = DIRECTION ( 'NONE',  ( 1.000000000000000000, 0.0000000000000000000, 0.0000000000000000000 ) ) ;
#54 = FACE_OUTER_BOUND ( 'NONE', #138, .T. ) ;
#55 = CC_DESIGN_APPROVAL ( #32, ( #80 ) ) ;
#56 = APPROVAL_ROLE ( '' ) ;
#57 = CARTESIAN_POINT ( 'NONE',  ( 1.316288464743861212E-13, 1.499999999999992228, 37.69999999999999574 ) ) ;
#58 = VERTEX_POINT ( 'NONE', #43 ) ;
#59 = FACE_OUTER_BOUND ( 'NONE', #120, .T. ) ;
#60 = ORIENTED_EDGE ( 'NONE', *, *, #141, .F. ) ;
#61 = AXIS2_PLACEMENT_3D ( 'NONE', #134, #27, #97 ) ;
#62 = DIRECTION ( 'NONE',  ( 3.491481338843133355E-15, -1.224646799147353207E-16, 1.000000000000000000 ) ) ;
#63 = DATE_AND_TIME ( #210, #15 ) ;
#64 = CC_DESIGN_PERSON_AND_ORGANIZATION_ASSIGNMENT ( #108, #208, ( #166 ) ) ;
#65 = PERSON_AND_ORGANIZATION_ROLE ( 'creator' ) ;
#66 = MANIFOLD_SOLID_BREP ( 'Corps-Déplacer/Copier1[1]', #30 ) ;
#67 = SECURITY_CLASSIFICATION_LEVEL ( 'unclassified' ) ;
#68 = LOCAL_TIME ( 13, 23, 28.00000000000000000, #40 ) ;
#69 = DIRECTION ( 'NONE',  ( -3.491481338843133355E-15, 1.224646799147353207E-16, -1.000000000000000000 ) ) ;
#70 = CARTESIAN_POINT ( 'NONE',  ( 3.136856286925319301E-14, 1.499999999999994671, 8.984313483298421943 ) ) ;
#71 = EDGE_LOOP ( 'NONE', ( #8 ) ) ;
#72 = CARTESIAN_POINT ( 'NONE',  ( 1.316288464743861212E-13, -4.616918432785521081E-15, 37.69999999999999574 ) ) ;
#73 = FACE_OUTER_BOUND ( 'NONE', #75, .T. ) ;
#74 = CC_DESIGN_DATE_AND_TIME_ASSIGNMENT ( #63, #91, ( #151 ) ) ;
#75 = EDGE_LOOP ( 'NONE', ( #184 ) ) ;
#76 = PLANE ( 'NONE',  #143 ) ;
#77 = ADVANCED_BREP_SHAPE_REPRESENTATION ( '42105', ( #66, #150, #38 ), #186 ) ;
#78 = EDGE_LOOP ( 'NONE', ( #116 ) ) ;
#79 = FACE_OUTER_BOUND ( 'NONE', #199, .T. ) ;
#80 = PRODUCT_DEFINITION_FORMATION_WITH_SPECIFIED_SOURCE ( 'ANY', '', #166, .NOT_KNOWN. ) ;
#81 = CC_DESIGN_DATE_AND_TIME_ASSIGNMENT ( #18, #193, ( #13 ) ) ;
#82 = ADVANCED_FACE ( 'NONE', ( #54 ), #171, .T. ) ;
#83 = UNCERTAINTY_MEASURE_WITH_UNIT (LENGTH_MEASURE( 1.000000000000000082E-05 ), #202, 'distance_accuracy_value', 'NONE');
#84 = DIRECTION ( 'NONE',  ( 0.0000000000000000000, -1.000000000000000000, 0.0000000000000000000 ) ) ;
#85 = APPROVAL_DATE_TIME ( #1, #32 ) ;
#86 = DIRECTION ( 'NONE',  ( 3.491481338843133355E-15, -1.227517819005651059E-16, 1.000000000000000000 ) ) ;
#87 = AXIS2_PLACEMENT_3D ( 'NONE', #26, #95, #152 ) ;
#88 = APPROVAL_ROLE ( '' ) ;
#89 = DIRECTION ( 'NONE',  ( 0.0000000000000000000, 0.0000000000000000000, 1.000000000000000000 ) ) ;
#90 = CARTESIAN_POINT ( 'NONE',  ( 3.136856286925319301E-14, -2.435780159241986398E-16, 8.984313483298421943 ) ) ;
#91 = DATE_TIME_ROLE ( 'classification_date' ) ;
#92 =( NAMED_UNIT ( * ) SI_UNIT ( $, .STERADIAN. ) SOLID_ANGLE_UNIT ( ) );
#93 = FACE_OUTER_BOUND ( 'NONE', #71, .T. ) ;
#94 = EDGE_LOOP ( 'NONE', ( #203 ) ) ;
#95 = DIRECTION ( 'NONE',  ( -3.491481338843133355E-15, 1.224646799147353207E-16, -1.000000000000000000 ) ) ;
#96 = PRODUCT_DEFINITION_SHAPE ( 'NONE', 'NONE',  #13 ) ;
#97 = DIRECTION ( 'NONE',  ( -4.285855558155652404E-31, -1.000000000000000000, -1.227517819005651059E-16 ) ) ;
#98 = CC_DESIGN_SECURITY_CLASSIFICATION ( #151, ( #80 ) ) ;
#99 = ORIENTED_EDGE ( 'NONE', *, *, #217, .T. ) ;
#100 = CYLINDRICAL_SURFACE ( 'NONE', #61, 1.249999999999999556 ) ;
#101 = APPROVAL ( #212, 'UNSPECIFIED' ) ;
#102 = CARTESIAN_POINT ( 'NONE',  ( 2.444036937190193033E-14, 0.0000000000000000000, 6.999999999999999112 ) ) ;
#103 = DATE_AND_TIME ( #3, #50 ) ;
#104 = COORDINATED_UNIVERSAL_TIME_OFFSET ( 1, 0, .AHEAD. ) ;
#105 = APPROVAL_STATUS ( 'not_yet_approved' ) ;
#106 = PERSON_AND_ORGANIZATION ( #123, #177 ) ;
#107 = DIRECTION ( 'NONE',  ( -4.347433052424081572E-31, -1.000000000000000000, -1.227517819005651059E-16 ) ) ;
#108 = PERSON_AND_ORGANIZATION ( #123, #177 ) ;
#109 = VERTEX_POINT ( 'NONE', #149 ) ;
#110 = APPROVAL_PERSON_ORGANIZATION ( #52, #101, #56 ) ;
#111 = EDGE_LOOP ( 'NONE', ( #119 ) ) ;
#112 = ADVANCED_FACE ( 'NONE', ( #59, #73 ), #100, .T. ) ;
#113 = DIRECTION ( 'NONE',  ( 0.0000000000000000000, 1.000000000000000000, 0.0000000000000000000 ) ) ;
#114 = FACE_OUTER_BOUND ( 'NONE', #111, .T. ) ;
#115 = CARTESIAN_POINT ( 'NONE',  ( 1.326762908760390423E-13, -4.653657836759941941E-15, 38.00000000000000000 ) ) ;
#116 = ORIENTED_EDGE ( 'NONE', *, *, #189, .F. ) ;
#117 = AXIS2_PLACEMENT_3D ( 'NONE', #222, #62, #204 ) ;
#118 = CIRCLE ( 'NONE', #2, 1.499999999999996669 ) ;
#119 = ORIENTED_EDGE ( 'NONE', *, *, #157, .T. ) ;
#120 = EDGE_LOOP ( 'NONE', ( #153 ) ) ;
#121 = CC_DESIGN_APPROVAL ( #139, ( #13 ) ) ;
#122 = CIRCLE ( 'NONE', #31, 1.199999999999996403 ) ;
#123 = PERSON ( 'UNSPECIFIED', 'UNSPECIFIED', 'UNSPECIFIED', ('UNSPECIFIED'), ('UNSPECIFIED'), ('UNSPECIFIED') ) ;
#124 = CALENDAR_DATE ( 2021, 1, 11 ) ;
#125 = PERSON_AND_ORGANIZATION_ROLE ( 'creator' ) ;
#126 = CLOSED_SHELL ( 'NONE', ( #82, #112, #35 ) ) ;
#127 = APPLICATION_CONTEXT ( 'configuration controlled 3d designs of mechanical parts and assemblies' ) ;
#128 = DIRECTION ( 'NONE',  ( -3.491481338843133355E-15, 1.224646799147353207E-16, -1.000000000000000000 ) ) ;
#129 = ORIENTED_EDGE ( 'NONE', *, *, #173, .T. ) ;
#130 = DIRECTION ( 'NONE',  ( -3.491481338843133355E-15, 1.224646799147353207E-16, -1.000000000000000000 ) ) ;
#131 = DIRECTION ( 'NONE',  ( -4.275831445896958607E-31, -1.000000000000000000, -1.224646799147353207E-16 ) ) ;
#132 = DIRECTION ( 'NONE',  ( -4.275831445896958607E-31, -1.000000000000000000, -1.224646799147353207E-16 ) ) ;
#133 = VERTEX_POINT ( 'NONE', #70 ) ;
#134 = CARTESIAN_POINT ( 'NONE',  ( -6.413731847436034514E-31, 0.0000000000000000000, -1.836965810494968570E-16 ) ) ;
#135 = ORIENTED_EDGE ( 'NONE', *, *, #37, .F. ) ;
#136 = TOROIDAL_SURFACE ( 'NONE', #14, 9.250000000000000000, 8.000000000000000000 ) ;
#137 = AXIS2_PLACEMENT_3D ( 'NONE', #197, #45, #10 ) ;
#138 = EDGE_LOOP ( 'NONE', ( #129 ) ) ;
#139 = APPROVAL ( #181, 'UNSPECIFIED' ) ;
#140 = AXIS2_PLACEMENT_3D ( 'NONE', #90, #4, #42 ) ;
#141 = EDGE_CURVE ( 'NONE', #168, #168, #44, .T. ) ;
#142 = AXIS2_PLACEMENT_3D ( 'NONE', #215, #86, #49 ) ;
#143 = AXIS2_PLACEMENT_3D ( 'NONE', #9, #185, #131 ) ;
#144 = PERSON_AND_ORGANIZATION_ROLE ( 'design_supplier' ) ;
#145 = CARTESIAN_POINT ( 'NONE',  ( 2.444036937190193033E-14, -8.592624733039555931E-16, 6.999999999999999112 ) ) ;
#146 = CC_DESIGN_PERSON_AND_ORGANIZATION_ASSIGNMENT ( #165, #65, ( #80 ) ) ;
#147 = PERSON_AND_ORGANIZATION ( #123, #177 ) ;
#148 = PERSON_AND_ORGANIZATION ( #123, #177 ) ;
#149 = CARTESIAN_POINT ( 'NONE',  ( 2.444036937190193033E-14, -1.250000000000001110, 6.999999999999999112 ) ) ;
#150 = MANIFOLD_SOLID_BREP ( 'Corps-Déplacer/Copier1[2]', #126 ) ;
#151 = SECURITY_CLASSIFICATION ( '', '', #67 ) ;
#152 = DIRECTION ( 'NONE',  ( 4.275831445896958607E-31, 1.000000000000000000, 1.224646799147353207E-16 ) ) ;
#153 = ORIENTED_EDGE ( 'NONE', *, *, #37, .T. ) ;
#154 = CC_DESIGN_PERSON_AND_ORGANIZATION_ASSIGNMENT ( #175, #125, ( #13 ) ) ;
#155 = PLANE ( 'NONE',  #117 ) ;
#156 = CONICAL_SURFACE ( 'NONE', #218, 1.199999999999996403, 0.7853981633974461696 ) ;
#157 = EDGE_CURVE ( 'NONE', #133, #133, #33, .T. ) ;
#158 = CARTESIAN_POINT ( 'NONE',  ( 2.444036937190193033E-14, -8.592624733039555931E-16, 6.999999999999999112 ) ) ;
#159 = CALENDAR_DATE ( 2021, 1, 11 ) ;
#160 = LOCAL_TIME ( 13, 23, 28.00000000000000000, #24 ) ;
#161 = APPLICATION_PROTOCOL_DEFINITION ( 'international standard', 'config_control_design', 1994, #194 ) ;
#162 = PLANE ( 'NONE',  #137 ) ;
#163 = CC_DESIGN_PERSON_AND_ORGANIZATION_ASSIGNMENT ( #5, #144, ( #80 ) ) ;
#164 = PERSON_AND_ORGANIZATION_ROLE ( 'classification_officer' ) ;
#165 = PERSON_AND_ORGANIZATION ( #123, #177 ) ;
#166 = PRODUCT ( '42105', '42105', '', ( #190 ) ) ;
#167 = ORIENTED_EDGE ( 'NONE', *, *, #217, .F. ) ;
#168 = VERTEX_POINT ( 'NONE', #201 ) ;
#169 = CIRCLE ( 'NONE', #23, 1.250000000000000222 ) ;
#170 = EDGE_LOOP ( 'NONE', ( #28 ) ) ;
#171 = PLANE ( 'NONE',  #34 ) ;
#172 = AXIS2_PLACEMENT_3D ( 'NONE', #145, #176, #179 ) ;
#173 = EDGE_CURVE ( 'NONE', #109, #109, #169, .T. ) ;
#174 = ADVANCED_FACE ( 'NONE', ( #209 ), #162, .F. ) ;
#175 = PERSON_AND_ORGANIZATION ( #123, #177 ) ;
#176 = DIRECTION ( 'NONE',  ( 3.491481338843133355E-15, -1.227517819005651059E-16, 1.000000000000000000 ) ) ;
#177 = ORGANIZATION ( 'UNSPECIFIED', 'UNSPECIFIED', '' ) ;
#178 = CALENDAR_DATE ( 2021, 1, 11 ) ;
#179 = DIRECTION ( 'NONE',  ( 0.0000000000000000000, -1.000000000000000000, 0.0000000000000000000 ) ) ;
#180 = APPROVAL_ROLE ( '' ) ;
#181 = APPROVAL_STATUS ( 'not_yet_approved' ) ;
#182 = APPROVAL_DATE_TIME ( #103, #139 ) ;
#183 = FACE_OUTER_BOUND ( 'NONE', #221, .T. ) ;
#184 = ORIENTED_EDGE ( 'NONE', *, *, #173, .F. ) ;
#185 = DIRECTION ( 'NONE',  ( 3.491481338843133355E-15, -1.224646799147353207E-16, 1.000000000000000000 ) ) ;
#186 =( GEOMETRIC_REPRESENTATION_CONTEXT ( 3 ) GLOBAL_UNCERTAINTY_ASSIGNED_CONTEXT ( ( #83 ) ) GLOBAL_UNIT_ASSIGNED_CONTEXT ( ( #202, #22, #92 ) ) REPRESENTATION_CONTEXT ( 'NONE', 'WORKASPACE' ) );
#187 = VERTEX_POINT ( 'NONE', #57 ) ;
#188 = EDGE_LOOP ( 'NONE', ( #60 ) ) ;
#189 = EDGE_CURVE ( 'NONE', #47, #47, #122, .T. ) ;
#190 = MECHANICAL_CONTEXT ( 'NONE', #127, 'mechanical' ) ;
#191 = SHAPE_DEFINITION_REPRESENTATION ( #96, #77 ) ;
#192 = APPROVAL_PERSON_ORGANIZATION ( #147, #32, #180 ) ;
#193 = DATE_TIME_ROLE ( 'creation_date' ) ;
#194 = APPLICATION_CONTEXT ( 'configuration controlled 3d designs of mechanical parts and assemblies' ) ;
#195 = ADVANCED_FACE ( 'NONE', ( #198 ), #76, .F. ) ;
#196 = APPLICATION_PROTOCOL_DEFINITION ( 'international standard', 'config_control_design', 1994, #127 ) ;
#197 = CARTESIAN_POINT ( 'NONE',  ( 1.326762908760390423E-13, 8.998558695971051224E-33, 38.00000000000000000 ) ) ;
#198 = FACE_OUTER_BOUND ( 'NONE', #188, .T. ) ;
#199 = EDGE_LOOP ( 'NONE', ( #135 ) ) ;
#200 = ADVANCED_FACE ( 'NONE', ( #183, #93 ), #25, .T. ) ;
#201 = CARTESIAN_POINT ( 'NONE',  ( 2.444036937190193033E-14, -1.250000000000001110, 6.999999999999999112 ) ) ;
#202 =( LENGTH_UNIT ( ) NAMED_UNIT ( * ) SI_UNIT ( .MILLI., .METRE. ) );
#203 = ORIENTED_EDGE ( 'NONE', *, *, #189, .T. ) ;
#204 = DIRECTION ( 'NONE',  ( -4.275831445896958607E-31, -1.000000000000000000, -1.224646799147353207E-16 ) ) ;
#205 = FACE_OUTER_BOUND ( 'NONE', #170, .T. ) ;
#206 = ADVANCED_FACE ( 'NONE', ( #214, #6 ), #156, .T. ) ;
#207 = LOCAL_TIME ( 13, 23, 28.00000000000000000, #20 ) ;
#208 = PERSON_AND_ORGANIZATION_ROLE ( 'design_owner' ) ;
#209 = FACE_OUTER_BOUND ( 'NONE', #78, .T. ) ;
#210 = CALENDAR_DATE ( 2021, 1, 11 ) ;
#211 = APPROVAL_DATE_TIME ( #21, #101 ) ;
#212 = APPROVAL_STATUS ( 'not_yet_approved' ) ;
#213 = PRODUCT_RELATED_PRODUCT_CATEGORY ( 'detail', '', ( #166 ) ) ;
#214 = FACE_OUTER_BOUND ( 'NONE', #11, .T. ) ;
#215 = CARTESIAN_POINT ( 'NONE',  ( -5.357319447694563972E-31, -3.714082703162453040E-33, -1.534397273757062714E-16 ) ) ;
#216 = CARTESIAN_POINT ( 'NONE',  ( 1.326762908760390423E-13, 1.199999999999991962, 38.00000000000000000 ) ) ;
#217 = EDGE_CURVE ( 'NONE', #187, #187, #118, .T. ) ;
#218 = AXIS2_PLACEMENT_3D ( 'NONE', #29, #128, #219 ) ;
#219 = DIRECTION ( 'NONE',  ( 0.0000000000000000000, 1.000000000000000000, 0.0000000000000000000 ) ) ;
#220 = DIRECTION ( 'NONE',  ( 3.491481338843133355E-15, -1.224646799147353207E-16, 1.000000000000000000 ) ) ;
#221 = EDGE_LOOP ( 'NONE', ( #99 ) ) ;
#222 = CARTESIAN_POINT ( 'NONE',  ( -1.068955699180124974E-30, 3.749391872347842802E-32, -3.061610804811898502E-16 ) ) ;
#223 = CC_DESIGN_PERSON_AND_ORGANIZATION_ASSIGNMENT ( #148, #164, ( #151 ) ) ;
ENDSEC;
END-ISO-10303-21;
