ISO-10303-21;
HEADER;
FILE_DESCRIPTION (( 'STEP AP203' ),
    '1' );
FILE_NAME ('42096.step',
    '2021-11-01T09:16:13',
    ( '' ),
    ( '' ),
    'SwSTEP 2.0',
    'SolidWorks 2019',
    '' );
FILE_SCHEMA (( 'CONFIG_CONTROL_DESIGN' ));
ENDSEC;

DATA;
#1 = COORDINATED_UNIVERSAL_TIME_OFFSET ( 1, 0, .AHEAD. ) ;
#2 = PRODUCT_DEFINITION_FORMATION_WITH_SPECIFIED_SOURCE ( 'ANY', '', #119, .NOT_KNOWN. ) ;
#3 = CALENDAR_DATE ( 2021, 1, 11 ) ;
#4 = DIRECTION ( 'NONE',  ( 0.0000000000000000000, 1.000000000000000000, 0.0000000000000000000 ) ) ;
#5 = EDGE_CURVE ( 'NONE', #44, #44, #120, .T. ) ;
#6 = ORIENTED_EDGE ( 'NONE', *, *, #183, .F. ) ;
#7 = AXIS2_PLACEMENT_3D ( 'NONE', #145, #181, #77 ) ;
#8 = AXIS2_PLACEMENT_3D ( 'NONE', #59, #146, #25 ) ;
#9 = PLANE ( 'NONE',  #177 ) ;
#10 = ADVANCED_FACE ( 'NONE', ( #191, #127 ), #150, .F. ) ;
#11 = CARTESIAN_POINT ( 'NONE',  ( 1.256933281983527219E-14, 0.0000000000000000000, 3.599999999999997868 ) ) ;
#12 = APPLICATION_PROTOCOL_DEFINITION ( 'international standard', 'config_control_design', 1994, #46 ) ;
#13 = CC_DESIGN_APPROVAL ( #196, ( #2 ) ) ;
#14 = CC_DESIGN_PERSON_AND_ORGANIZATION_ASSIGNMENT ( #70, #189, ( #2 ) ) ;
#15 = PERSON_AND_ORGANIZATION_ROLE ( 'design_owner' ) ;
#16 = DATE_AND_TIME ( #62, #209 ) ;
#17 = APPROVAL_STATUS ( 'not_yet_approved' ) ;
#18 = DATE_TIME_ROLE ( 'classification_date' ) ;
#19 = AXIS2_PLACEMENT_3D ( 'NONE', #132, #42, #165 ) ;
#20 = EDGE_LOOP ( 'NONE', ( #88 ) ) ;
#21 = CALENDAR_DATE ( 2021, 1, 11 ) ;
#22 = AXIS2_PLACEMENT_3D ( 'NONE', #198, #134, #56 ) ;
#23 = FACE_BOUND ( 'NONE', #33, .T. ) ;
#24 = CARTESIAN_POINT ( 'NONE',  ( 1.316288464743861212E-13, -4.616918432785521081E-15, 37.69999999999999574 ) ) ;
#25 = DIRECTION ( 'NONE',  ( -4.285855558155654155E-31, -1.000000000000000000, -1.227517819005650812E-16 ) ) ;
#26 = SECURITY_CLASSIFICATION ( '', '', #124 ) ;
#27 = CYLINDRICAL_SURFACE ( 'NONE', #22, 1.499999999999995781 ) ;
#28 = CC_DESIGN_APPROVAL ( #180, ( #26 ) ) ;
#29 = DIRECTION ( 'NONE',  ( -4.275831445896958607E-31, -1.000000000000000000, -1.224646799147353207E-16 ) ) ;
#30 = DIRECTION ( 'NONE',  ( 1.000000000000000000, 0.0000000000000000000, 0.0000000000000000000 ) ) ;
#31 = VERTEX_POINT ( 'NONE', #98 ) ;
#32 = COORDINATED_UNIVERSAL_TIME_OFFSET ( 1, 0, .AHEAD. ) ;
#33 = EDGE_LOOP ( 'NONE', ( #38 ) ) ;
#34 = ORGANIZATION ( 'UNSPECIFIED', 'UNSPECIFIED', '' ) ;
#35 = APPROVAL_ROLE ( '' ) ;
#36 = ORIENTED_EDGE ( 'NONE', *, *, #5, .F. ) ;
#37 = EDGE_LOOP ( 'NONE', ( #36 ) ) ;
#38 = ORIENTED_EDGE ( 'NONE', *, *, #206, .T. ) ;
#39 = DIRECTION ( 'NONE',  ( -3.491481338843133355E-15, 1.227517819005651059E-16, -1.000000000000000000 ) ) ;
#40 = CARTESIAN_POINT ( 'NONE',  ( 1.256933281983527692E-14, -2.081668171172177191E-15, 3.599999999999999201 ) ) ;
#41 = DIRECTION ( 'NONE',  ( 3.491481338843133355E-15, -1.224646799147353207E-16, 1.000000000000000000 ) ) ;
#42 = DIRECTION ( 'NONE',  ( 3.491481338843133355E-15, -1.224646799147353207E-16, 1.000000000000000000 ) ) ;
#43 = FACE_OUTER_BOUND ( 'NONE', #37, .T. ) ;
#44 = VERTEX_POINT ( 'NONE', #203 ) ;
#45 = APPLICATION_PROTOCOL_DEFINITION ( 'international standard', 'config_control_design', 1994, #223 ) ;
#46 = APPLICATION_CONTEXT ( 'configuration controlled 3d designs of mechanical parts and assemblies' ) ;
#47 = COORDINATED_UNIVERSAL_TIME_OFFSET ( 1, 0, .AHEAD. ) ;
#48 = PERSON_AND_ORGANIZATION ( #140, #34 ) ;
#49 = ADVANCED_FACE ( 'NONE', ( #202 ), #148, .F. ) ;
#50 = DIRECTION ( 'NONE',  ( 3.491481338843133355E-15, -1.227517819005651059E-16, 1.000000000000000000 ) ) ;
#51 = ADVANCED_FACE ( 'NONE', ( #218, #23 ), #110, .T. ) ;
#52 = EDGE_LOOP ( 'NONE', ( #66 ) ) ;
#53 = CIRCLE ( 'NONE', #55, 1.499999999999997558 ) ;
#54 = EDGE_LOOP ( 'NONE', ( #157 ) ) ;
#55 = AXIS2_PLACEMENT_3D ( 'NONE', #24, #144, #78 ) ;
#56 = DIRECTION ( 'NONE',  ( 4.275831445896958607E-31, 1.000000000000000000, 1.224646799147353207E-16 ) ) ;
#57 = CC_DESIGN_PERSON_AND_ORGANIZATION_ASSIGNMENT ( #204, #15, ( #119 ) ) ;
#58 = DIRECTION ( 'NONE',  ( -4.364421517928610533E-31, -1.000000000000000000, -1.227517819005651059E-16 ) ) ;
#59 = CARTESIAN_POINT ( 'NONE',  ( -3.857270002340084098E-31, -8.987882689079820298E-33, -1.104766037105084819E-16 ) ) ;
#60 =( GEOMETRIC_REPRESENTATION_CONTEXT ( 3 ) GLOBAL_UNCERTAINTY_ASSIGNED_CONTEXT ( ( #90 ) ) GLOBAL_UNIT_ASSIGNED_CONTEXT ( ( #152, #208, #184 ) ) REPRESENTATION_CONTEXT ( 'NONE', 'WORKASPACE' ) );
#61 = CARTESIAN_POINT ( 'NONE',  ( 1.326762908760390423E-13, -4.653657836759941941E-15, 38.00000000000000000 ) ) ;
#62 = CALENDAR_DATE ( 2021, 1, 11 ) ;
#63 = CC_DESIGN_PERSON_AND_ORGANIZATION_ASSIGNMENT ( #154, #207, ( #190 ) ) ;
#64 = DATE_AND_TIME ( #3, #92 ) ;
#65 = CARTESIAN_POINT ( 'NONE',  ( 1.256933281983527377E-14, -0.8999999999999989120, 3.599999999999998312 ) ) ;
#66 = ORIENTED_EDGE ( 'NONE', *, *, #183, .T. ) ;
#67 = PRODUCT_DEFINITION_SHAPE ( 'NONE', 'NONE',  #190 ) ;
#68 = APPROVAL_PERSON_ORGANIZATION ( #87, #180, #35 ) ;
#69 = CALENDAR_DATE ( 2021, 1, 11 ) ;
#70 = PERSON_AND_ORGANIZATION ( #140, #34 ) ;
#71 = EDGE_LOOP ( 'NONE', ( #195 ) ) ;
#72 = LOCAL_TIME ( 10, 16, 13.00000000000000000, #107 ) ;
#73 = PERSON_AND_ORGANIZATION ( #140, #34 ) ;
#74 = ADVANCED_FACE ( 'NONE', ( #115, #149 ), #27, .T. ) ;
#75 = DIRECTION ( 'NONE',  ( 3.491481338843133355E-15, -1.224646799147353207E-16, 1.000000000000000000 ) ) ;
#76 = CC_DESIGN_PERSON_AND_ORGANIZATION_ASSIGNMENT ( #174, #175, ( #2 ) ) ;
#77 = DIRECTION ( 'NONE',  ( 0.0000000000000000000, 1.000000000000000000, 0.0000000000000000000 ) ) ;
#78 = DIRECTION ( 'NONE',  ( 0.0000000000000000000, 1.000000000000000000, 0.0000000000000000000 ) ) ;
#79 = DIRECTION ( 'NONE',  ( 4.275831445896958607E-31, 1.000000000000000000, 1.224646799147353207E-16 ) ) ;
#80 = LOCAL_TIME ( 10, 16, 13.00000000000000000, #32 ) ;
#81 = VERTEX_POINT ( 'NONE', #65 ) ;
#82 = CARTESIAN_POINT ( 'NONE',  ( 2.318251723926781399E-14, 1.499999999999995337, 6.639736830714124238 ) ) ;
#83 = AXIS2_PLACEMENT_3D ( 'NONE', #91, #95, #215 ) ;
#84 = CALENDAR_DATE ( 2021, 1, 11 ) ;
#85 = ADVANCED_FACE ( 'NONE', ( #43 ), #9, .F. ) ;
#86 = APPROVAL_DATE_TIME ( #104, #180 ) ;
#87 = PERSON_AND_ORGANIZATION ( #140, #34 ) ;
#88 = ORIENTED_EDGE ( 'NONE', *, *, #143, .F. ) ;
#89 = ORIENTED_EDGE ( 'NONE', *, *, #206, .F. ) ;
#90 = UNCERTAINTY_MEASURE_WITH_UNIT (LENGTH_MEASURE( 1.000000000000000082E-05 ), #152, 'distance_accuracy_value', 'NONE');
#91 = CARTESIAN_POINT ( 'NONE',  ( 1.256933281983527377E-14, -4.419064148420342233E-16, 3.599999999999998312 ) ) ;
#92 = LOCAL_TIME ( 10, 16, 13.00000000000000000, #47 ) ;
#93 = FACE_OUTER_BOUND ( 'NONE', #213, .T. ) ;
#94 = ADVANCED_BREP_SHAPE_REPRESENTATION ( '42096', ( #128, #211, #137 ), #60 ) ;
#95 = DIRECTION ( 'NONE',  ( 3.491481338843133355E-15, -1.227517819005651059E-16, 1.000000000000000000 ) ) ;
#96 = CARTESIAN_POINT ( 'NONE',  ( 1.326762908760390423E-13, 1.199999999999993294, 38.00000000000000000 ) ) ;
#97 = AXIS2_PLACEMENT_3D ( 'NONE', #112, #130, #79 ) ;
#98 = CARTESIAN_POINT ( 'NONE',  ( -7.714540004680166444E-31, -0.8999999999999984679, -2.209532074210168651E-16 ) ) ;
#99 = APPROVAL_STATUS ( 'not_yet_approved' ) ;
#100 = ADVANCED_FACE ( 'NONE', ( #93 ), #131, .F. ) ;
#101 = VERTEX_POINT ( 'NONE', #82 ) ;
#102 = AXIS2_PLACEMENT_3D ( 'NONE', #162, #113, #182 ) ;
#103 = CC_DESIGN_DATE_AND_TIME_ASSIGNMENT ( #64, #139, ( #190 ) ) ;
#104 = DATE_AND_TIME ( #69, #72 ) ;
#105 = EDGE_LOOP ( 'NONE', ( #176 ) ) ;
#106 = AXIS2_PLACEMENT_3D ( 'NONE', #61, #185, #4 ) ;
#107 = COORDINATED_UNIVERSAL_TIME_OFFSET ( 1, 0, .AHEAD. ) ;
#108 = EDGE_LOOP ( 'NONE', ( #126 ) ) ;
#109 = ORIENTED_EDGE ( 'NONE', *, *, #118, .F. ) ;
#110 = CONICAL_SURFACE ( 'NONE', #7, 1.199999999999997957, 0.7853981633974450594 ) ;
#111 = APPROVAL ( #99, 'UNSPECIFIED' ) ;
#112 = CARTESIAN_POINT ( 'NONE',  ( 1.326762908760390423E-13, 8.998558695971062171E-33, 38.00000000000000000 ) ) ;
#113 = DIRECTION ( 'NONE',  ( 3.491481338843133355E-15, -1.227517819005651059E-16, 1.000000000000000000 ) ) ;
#114 = PLANE ( 'NONE',  #19 ) ;
#115 = FACE_OUTER_BOUND ( 'NONE', #71, .T. ) ;
#116 = CIRCLE ( 'NONE', #129, 1.499999999999995781 ) ;
#117 = PERSON_AND_ORGANIZATION ( #140, #34 ) ;
#118 = EDGE_CURVE ( 'NONE', #141, #141, #53, .T. ) ;
#119 = PRODUCT ( '42096', '42096', '', ( #167 ) ) ;
#120 = CIRCLE ( 'NONE', #172, 0.8999999999999984679 ) ;
#121 = DIRECTION ( 'NONE',  ( 0.0000000000000000000, -1.000000000000000000, 0.0000000000000000000 ) ) ;
#122 = APPROVAL_DATE_TIME ( #156, #196 ) ;
#123 = APPROVAL_PERSON_ORGANIZATION ( #48, #196, #188 ) ;
#124 = SECURITY_CLASSIFICATION_LEVEL ( 'unclassified' ) ;
#125 = EDGE_LOOP ( 'NONE', ( #194 ) ) ;
#126 = ORIENTED_EDGE ( 'NONE', *, *, #171, .F. ) ;
#127 = FACE_OUTER_BOUND ( 'NONE', #125, .T. ) ;
#128 = MANIFOLD_SOLID_BREP ( 'Corps-Déplacer/Copier1[1]', #170 ) ;
#129 = AXIS2_PLACEMENT_3D ( 'NONE', #179, #39, #178 ) ;
#130 = DIRECTION ( 'NONE',  ( -3.491481338843133355E-15, 1.224646799147353207E-16, -1.000000000000000000 ) ) ;
#131 = PLANE ( 'NONE',  #217 ) ;
#132 = CARTESIAN_POINT ( 'NONE',  ( 1.256933281983527692E-14, -2.081668171172177191E-15, 3.599999999999999201 ) ) ;
#133 = CIRCLE ( 'NONE', #106, 1.199999999999997957 ) ;
#134 = DIRECTION ( 'NONE',  ( -3.491481338843133355E-15, 1.224646799147353207E-16, -1.000000000000000000 ) ) ;
#135 = ADVANCED_FACE ( 'NONE', ( #220, #197 ), #161, .T. ) ;
#136 = DIRECTION ( 'NONE',  ( 0.0000000000000000000, 0.0000000000000000000, 1.000000000000000000 ) ) ;
#137 = AXIS2_PLACEMENT_3D ( 'NONE', #169, #136, #30 ) ;
#138 = APPROVAL_DATE_TIME ( #16, #111 ) ;
#139 = DATE_TIME_ROLE ( 'creation_date' ) ;
#140 = PERSON ( 'UNSPECIFIED', 'UNSPECIFIED', 'UNSPECIFIED', ('UNSPECIFIED'), ('UNSPECIFIED'), ('UNSPECIFIED') ) ;
#141 = VERTEX_POINT ( 'NONE', #186 ) ;
#142 = DATE_AND_TIME ( #21, #166 ) ;
#143 = EDGE_CURVE ( 'NONE', #81, #81, #205, .T. ) ;
#144 = DIRECTION ( 'NONE',  ( -3.491481338843133355E-15, 1.224646799147353207E-16, -1.000000000000000000 ) ) ;
#145 = CARTESIAN_POINT ( 'NONE',  ( 1.326762908760390423E-13, -4.653657836759941941E-15, 38.00000000000000000 ) ) ;
#146 = DIRECTION ( 'NONE',  ( 3.491481338843133355E-15, -1.227517819005651059E-16, 1.000000000000000000 ) ) ;
#147 = PRODUCT_RELATED_PRODUCT_CATEGORY ( 'detail', '', ( #119 ) ) ;
#148 = PLANE ( 'NONE',  #97 ) ;
#149 = FACE_OUTER_BOUND ( 'NONE', #108, .T. ) ;
#150 = TOROIDAL_SURFACE ( 'NONE', #153, 8.899999999999998579, 8.000000000000000000 ) ;
#151 = VERTEX_POINT ( 'NONE', #96 ) ;
#152 =( LENGTH_UNIT ( ) NAMED_UNIT ( * ) SI_UNIT ( .MILLI., .METRE. ) );
#153 = AXIS2_PLACEMENT_3D ( 'NONE', #11, #219, #58 ) ;
#154 = PERSON_AND_ORGANIZATION ( #140, #34 ) ;
#155 = CC_DESIGN_PERSON_AND_ORGANIZATION_ASSIGNMENT ( #73, #193, ( #26 ) ) ;
#156 = DATE_AND_TIME ( #84, #80 ) ;
#157 = ORIENTED_EDGE ( 'NONE', *, *, #143, .T. ) ;
#158 = EDGE_LOOP ( 'NONE', ( #109 ) ) ;
#159 = EDGE_LOOP ( 'NONE', ( #89 ) ) ;
#160 = CC_DESIGN_SECURITY_CLASSIFICATION ( #26, ( #2 ) ) ;
#161 = CYLINDRICAL_SURFACE ( 'NONE', #102, 0.8999999999999984679 ) ;
#162 = CARTESIAN_POINT ( 'NONE',  ( -6.413731847436034514E-31, 0.0000000000000000000, -1.836965810494968570E-16 ) ) ;
#163 = APPROVAL_PERSON_ORGANIZATION ( #117, #111, #168 ) ;
#164 = DIRECTION ( 'NONE',  ( -4.275831445896958607E-31, -1.000000000000000000, -1.224646799147353207E-16 ) ) ;
#165 = DIRECTION ( 'NONE',  ( -4.275831445896958607E-31, -1.000000000000000000, -1.224646799147353207E-16 ) ) ;
#166 = LOCAL_TIME ( 10, 16, 13.00000000000000000, #212 ) ;
#167 = MECHANICAL_CONTEXT ( 'NONE', #46, 'mechanical' ) ;
#168 = APPROVAL_ROLE ( '' ) ;
#169 = CARTESIAN_POINT ( 'NONE',  ( 0.0000000000000000000, 0.0000000000000000000, 0.0000000000000000000 ) ) ;
#170 = CLOSED_SHELL ( 'NONE', ( #74, #51, #49, #10, #85 ) ) ;
#171 = EDGE_CURVE ( 'NONE', #101, #101, #116, .T. ) ;
#172 = AXIS2_PLACEMENT_3D ( 'NONE', #210, #50, #121 ) ;
#173 = SHAPE_DEFINITION_REPRESENTATION ( #67, #94 ) ;
#174 = PERSON_AND_ORGANIZATION ( #140, #34 ) ;
#175 = PERSON_AND_ORGANIZATION_ROLE ( 'creator' ) ;
#176 = ORIENTED_EDGE ( 'NONE', *, *, #5, .T. ) ;
#177 = AXIS2_PLACEMENT_3D ( 'NONE', #40, #41, #29 ) ;
#178 = DIRECTION ( 'NONE',  ( 0.0000000000000000000, 1.000000000000000000, 0.0000000000000000000 ) ) ;
#179 = CARTESIAN_POINT ( 'NONE',  ( 2.318251723926781399E-14, -3.731331124789355328E-16, 6.639736830714124238 ) ) ;
#180 = APPROVAL ( #214, 'UNSPECIFIED' ) ;
#181 = DIRECTION ( 'NONE',  ( -3.491481338843133355E-15, 1.224646799147353207E-16, -1.000000000000000000 ) ) ;
#182 = DIRECTION ( 'NONE',  ( -4.285855558155652404E-31, -1.000000000000000000, -1.227517819005651059E-16 ) ) ;
#183 = EDGE_CURVE ( 'NONE', #31, #31, #201, .T. ) ;
#184 =( NAMED_UNIT ( * ) SI_UNIT ( $, .STERADIAN. ) SOLID_ANGLE_UNIT ( ) );
#185 = DIRECTION ( 'NONE',  ( -3.491481338843133355E-15, 1.224646799147353207E-16, -1.000000000000000000 ) ) ;
#186 = CARTESIAN_POINT ( 'NONE',  ( 1.316288464743861212E-13, 1.499999999999993117, 37.69999999999999574 ) ) ;
#187 = ADVANCED_FACE ( 'NONE', ( #199 ), #114, .T. ) ;
#188 = APPROVAL_ROLE ( '' ) ;
#189 = PERSON_AND_ORGANIZATION_ROLE ( 'design_supplier' ) ;
#190 = PRODUCT_DEFINITION ( 'UNKNOWN', '', #2, #216 ) ;
#191 = FACE_OUTER_BOUND ( 'NONE', #105, .T. ) ;
#192 = CC_DESIGN_APPROVAL ( #111, ( #190 ) ) ;
#193 = PERSON_AND_ORGANIZATION_ROLE ( 'classification_officer' ) ;
#194 = ORIENTED_EDGE ( 'NONE', *, *, #171, .T. ) ;
#195 = ORIENTED_EDGE ( 'NONE', *, *, #118, .T. ) ;
#196 = APPROVAL ( #17, 'UNSPECIFIED' ) ;
#197 = FACE_OUTER_BOUND ( 'NONE', #20, .T. ) ;
#198 = CARTESIAN_POINT ( 'NONE',  ( 0.0000000000000000000, 0.0000000000000000000, 0.0000000000000000000 ) ) ;
#199 = FACE_OUTER_BOUND ( 'NONE', #54, .T. ) ;
#200 = CARTESIAN_POINT ( 'NONE',  ( -6.413803915257455362E-31, 2.249659577954771652E-32, -1.836986451539392583E-16 ) ) ;
#201 = CIRCLE ( 'NONE', #8, 0.8999999999999984679 ) ;
#202 = FACE_OUTER_BOUND ( 'NONE', #159, .T. ) ;
#203 = CARTESIAN_POINT ( 'NONE',  ( 1.256933281983527377E-14, -0.8999999999999989120, 3.599999999999998312 ) ) ;
#204 = PERSON_AND_ORGANIZATION ( #140, #34 ) ;
#205 = CIRCLE ( 'NONE', #83, 0.8999999999999984679 ) ;
#206 = EDGE_CURVE ( 'NONE', #151, #151, #133, .T. ) ;
#207 = PERSON_AND_ORGANIZATION_ROLE ( 'creator' ) ;
#208 =( NAMED_UNIT ( * ) PLANE_ANGLE_UNIT ( ) SI_UNIT ( $, .RADIAN. ) );
#209 = LOCAL_TIME ( 10, 16, 13.00000000000000000, #1 ) ;
#210 = CARTESIAN_POINT ( 'NONE',  ( 1.256933281983527377E-14, -4.419064148420342233E-16, 3.599999999999998312 ) ) ;
#211 = MANIFOLD_SOLID_BREP ( 'Corps-Déplacer/Copier1[2]', #221 ) ;
#212 = COORDINATED_UNIVERSAL_TIME_OFFSET ( 1, 0, .AHEAD. ) ;
#213 = EDGE_LOOP ( 'NONE', ( #6 ) ) ;
#214 = APPROVAL_STATUS ( 'not_yet_approved' ) ;
#215 = DIRECTION ( 'NONE',  ( 0.0000000000000000000, -1.000000000000000000, 0.0000000000000000000 ) ) ;
#216 = DESIGN_CONTEXT ( 'detailed design', #223, 'design' ) ;
#217 = AXIS2_PLACEMENT_3D ( 'NONE', #200, #75, #164 ) ;
#218 = FACE_OUTER_BOUND ( 'NONE', #158, .T. ) ;
#219 = DIRECTION ( 'NONE',  ( 3.491481338843133355E-15, -1.227517819005651059E-16, 1.000000000000000000 ) ) ;
#220 = FACE_OUTER_BOUND ( 'NONE', #52, .T. ) ;
#221 = CLOSED_SHELL ( 'NONE', ( #187, #135, #100 ) ) ;
#222 = CC_DESIGN_DATE_AND_TIME_ASSIGNMENT ( #142, #18, ( #26 ) ) ;
#223 = APPLICATION_CONTEXT ( 'configuration controlled 3d designs of mechanical parts and assemblies' ) ;
ENDSEC;
END-ISO-10303-21;
